Oops, an error
Loading. Please wait.

Burning In My Soul tab

1,218 views 1 this week
1 commentread comment
1 2 3 4 5
2 more votes to show rating
add to favorites
×
Save as Personal and add changes to this tab that will be seen only by you. Learn more ›
×
You can save this tab as Personal to edit and correct it or add notes. All changes will be seen only by you. Learn more »
launch autoscroll
font size
0
reset
how to read this tab
guitar tuner
edit
Autoscroll
slow
fast
+/-
esc
set tempo
stop
Author
Tabbed by Tadd Steffner.
Capo:4
Song is in the key of B
enjoy, feedback is nice :)

Into. (goes through the first verse)

   Em                       C            G
e|-------------------------------------------------|
B|-------------------------------------------------|
G|------0-----------0------------0-----------0-----| 
D|----2---2-------2---2--------2---2-------2---2---| X10
A|----------2-----------2---3--------3-------------|
E|-0-----------0-------------------------3-------3-|

Verse 1

There is power, power
Here in this hour, this hour   X2
We're all together, together   
Waiting here as one

Chorus

Em      C                   G
Whoooa, hear the sound from heaven
Em      C                G
Whoooa, a mighty rushing wind
Em      C                 G
Whoooa, we're calling for revival
D
God let your fire fall again.

|----silence-----| Em  C   G                Em  C   G
It's burning in my sooooooul, Burning in my soooooooul (silence only once)

Verse 2 (back to tab)

            
            
Suggest correction
Creating personal tab
Creating personal tab
You can edit any tab online and save it as your Personal.

You can edit, replace or remove any tab part or add personal notes – all changes will be seen only by you.

Personal tabs can be accessed anytime from any device, even offline.
Learn more »
Give kudos to tab author, rate the tab!
1 2 3 4 5
comments
print report bad tab
1 comment total.
0 reply
Bigtuna_43 95 May 22, 2013 12:36 PM

Em C G
e|-------------------------------------------------|
B|-------------------------------------------------|
G|------0-----------0------------0-----------0-----|
D|----2---2-------2---2--------2---2-------2---2---| X10
A|----------2-----------2---3--------3-------------|
E|-0-----------0-------------------------3-------3-|

guest
You may want to rate the tab now too:
select rating
Wanna post a correction for this tab? Suggest correction