Oops, an error
Loading. Please wait.

Take An End chords

by BREW 36
28 views 1 this week
no commentswrite comment
1 2 3 4 5
3 more votes to show rating
add to favorites
×
Save as Personal and add changes to this tab that will be seen only by you. Learn more ›
×
You can save this tab as Personal to edit and correct it or add notes. All changes will be seen only by you. Learn more »
launch autoscroll
font size
0
reset
transpose
0
reset
display chords
guitar tuner
edit
Autoscroll
slow
fast
+/-
esc
set tempo
stop
Author
Difficulty
Strumming
There is no strumming pattern for this song yet. and get +5 IQ
[Chorus] x3
     A          D           A              D
Come On Take an end, like a storm from the shore
        A                F#m             D            E
No more bulls behind the fences, time to hit, time to score!


[Verse 1]
D                                          A       F#m E  D
Hold end, hold end, hold the streets, come on! (Victorian boys!)
D                                          A       F#m E  D
Hold end, hold end, hold the streets, come on! (Victorian boys!)
D                                  A           F#m  E       D
Rich kids don't feel safe in their house, they know what's about.
D                                  A
They'll take an end, they rule the streets, 
                 F#m      E         D
It's blood, it's life, workingclass beats.

e|----------------------------------------------------------------------|
B|----------------------------------------------------------------------|
G|-7--7-7--7-7-7-9--9-9--9-9-9-11--11-11--12--12-12-14--14-14--14-14-14-|
D|-7--7-7--7-7-7-9--9-9--9-9-9-11--11-11--12--12-12-14--14-14--14-14-14-|
A|-5--5-5--5-5-5-7--7-7--7-7-7-9---9--9---10--10-10-12--12-12--12-12-12-|
E|----------------------------------------------------------------------|

[Chorus] x2
     A          D           A              D
Come On Take an end, like a storm from the shore
        A                F#m             D            E
No more bulls behind the fences, time to hit, time to score!


First part of [Verse 1]
D                                          A       F#m E  D
Hold end, hold end, hold the streets, come on! (Victorian boys!)
D                                          A       F#m E  D
Hold end, hold end, hold the streets, come on! (Victorian boys!)


[Solo]
D     A     D     A   F#m E  D
Then…
e|----------------------------------------------------------------------|
B|----------------------------------------------------------------------|
G|-7--7-7--7-7-7-9--9-9--9-9-9-11--11-11--12--12-12-14--14-14--14-14-14-|
D|-7--7-7--7-7-7-9--9-9--9-9-9-11--11-11--12--12-12-14--14-14--14-14-14-|
A|-5--5-5--5-5-5-7--7-7--7-7-7-9---9--9---10--10-10-12--12-12--12-12-12-|
E|----------------------------------------------------------------------|


[Chorus] x6
     A          D           A              D
Come On Take an end, like a storm from the shore
        A                F#m             D            E
No more bulls behind the fences, time to hit, time to score!

            
            
Suggest correction
Creating personal tab
Creating personal tab
You can edit any tab online and save it as your Personal.

You can edit, replace or remove any tab part or add personal notes – all changes will be seen only by you.

Personal tabs can be accessed anytime from any device, even offline.
Learn more »
Give kudos to tab author, rate the tab!
1 2 3 4 5
comments
print report bad tab
guest
You may want to rate the tab now too:
select rating
Wanna post a correction for this tab? Suggest correction