Oops, an error
Loading. Please wait.

Dawn Of Another Day bass

150 views 1 this week
no commentswrite comment
1 2 3 4 5
2 more votes to show rating
add to favorites
×
Save as Personal and add changes to this tab that will be seen only by you. Learn more ›
×
You can save this tab as Personal to edit and correct it or add notes. All changes will be seen only by you. Learn more »
launch autoscroll
font size
0
reset
guitar tuner
edit
Autoscroll
slow
fast
+/-
esc
set tempo
stop
Author
Difficulty
Song: Dawn of Another Day
Album: A Better Land
Artist: Brian Auger's Oblivion Express

Band Website: http://www.brianauger.com/

Standard Tuning (E, A, D, G)

Brian Auger's Oblivion Express is a fantastic band and is great to just chillout 
to. This bass line is
fun to play and is a really laiid back and relatively easy song. Definitely learn 
this one, its worth it just
for the fun of learning and playing along with the song!

The bass comes in at 0:14

G------------------9-------9--------------------9-------9---|
D----5------5---------------------5-------5-----------------|
A----------------7---7-7-7---7----------------7---7-7-7---7-|
E--3---33-3---3-----------------3---3-3-3---3---------------|

G----------------------------------------------------------|
D-----9-------9----------12----------12--------9-------9---|
A----------------------------------------------------------|
E--7-7--7-7-7--789-10-10----10-10-10----10--7-7--7-7-7---7-|

G-------------------------------------|
D------7-------7--------6-------6-----|
A-------------------------------------|
E--5-5---5-5-5---5--4-4---4-4-4---4-3~|

G------10-10----------------9-9-------------------8----------|
D----10------10-8h10-------9----9-7h9--------------8--6------|
A--8-----------------8~--7------------7~--6-4-6~--------8-6\-|
E------------------------------------------------------------|

G--------------------9-------9----------------------9-------9---|
D----5------5-----------------------5-------5-------------------|
A----------------7-7---7-7-7---7----------------7-7---7-7-7---7-|
E--3---33-3---3------------------3-3--3-3-3---3-----------------| x2

G----------------------------------------------------------|
D-----9-------9----------12----------12--------9-------9---|
A----------------------------------------------------------|
E--7-7--7-7-7--789-10-10----10-10-10----10--7-7--7-7-7---7-|

G-------------------------------------|
D------7-------7--------6-------6-----|
A-------------------------------------|
E--5-5---5-5-5---5--4-4---4-4-4---4-3~|

G-------10-10-----------10-----9-9--------9--------8---------|    
D-----10------10-8h10-10------9----9-7h9-9--6-4-6---8--6-----|     
A--8-----------------8-----7------------7----------------8-6-|     
E------------------------------------------------------------|     
                                                                   
G--------------------9-------9----------------------9-------9---|  
D----5------5-----------------------5-------5-------------------|  
A----------------7-7---7-7-7---7----------------7-7---7-7-7---7-|  
E--3---33-3---3------------------3-3--3-3-3---3-----------------|  
                                                                   
G----------------------------------------------------------|       
D-----9-------9----------12----------12--------9-------9---|       
A----------------------------------------------------------|       
E--7-7--7-7-7--789-10-10----10-10-10----10--7-7--7-7-7---7-|       
                                                                   
G-------------------------------------|                            
D------7-------7--------6-------6-----|                            
A-------------------------------------|                            
E--5-5---5-5-5---5--4-4---4-4-4---4-3~|

G-------10-10-----------10-----9-9--------9-------|    
D-----10------10-8h10-10------9----9-7h9-9--6-4-6-|     
A--8-----------------8-----7------------7---------|     
E-------------------------------------------------|                           

G----------|
D----------|
A--6-4-6---|
E--------4-|

G----------------|
D----------------|
A--6-4-6---------|
E--------4--6--8-| Repeat until the end


Key:
Hold: ~
Hammer On: h
Slide Up: /
Slide Down: \

Tabbed by Max Dietz

            
            
Suggest correction
Creating personal tab
Creating personal tab
You can edit any tab online and save it as your Personal.

You can edit, replace or remove any tab part or add personal notes – all changes will be seen only by you.

Personal tabs can be accessed anytime from any device, even offline.
Learn more »
Give kudos to tab author, rate the tab!
1 2 3 4 5
comments
print report bad tab
guest
You may want to rate the tab now too:
select rating
Wanna post a correction for this tab? Suggest correction