Oops, an error
Loading. Please wait.

Loyalty tab

version 1
version 1

Whole song

1,728 views 1 this week
no commentswrite comment
1 2 3 4 5
3 more votes to show rating
add to favorites
×
Save as Personal and add changes to this tab that will be seen only by you. Learn more ›
×
You can save this tab as Personal to edit and correct it or add notes. All changes will be seen only by you. Learn more »
launch autoscroll
font size
0
reset
how to read this tab
guitar tuner
edit
Autoscroll
slow
fast
+/-
esc
set tempo
stop
Brian Head Welch
Loyalty
Tabbed by U B the band
Tuning A E A D F# B

Legend
b-bend                           r-return bend                   pm-palm mute

Intro: Guitar 1 (Distorted)
 B|---------------------------------------------------------------------------|
F#|---------------------------------------------------------------------------|
 D|--2----------------2----------------2-------------------------5------------|
 A|--2----------------2----------------2----------------3--------5------------|
 E|--0----------------0----------------0----------------3--------3------------|
 A|-----------------------------------------------------3---------------------|
                                                                              |
Intro: Guitar 2 (Clean)                                                       |
 B|------12---------------12---------------12---------------13----------------|
F#|----11---11----------11---11----------11---11----------11---11---11---11---|
 D|--14-------14------14-------14------14-------14------14-------14---14------|
 A|---------------------------------------------------------------------------|
 E|---------------------------------------------------------------------------|
 A|---------------------------------------------------------------------------|

Intro: Guitar 1 (Distorted)
 B|---------------------------------------------------------------------------|
F#|---------------------------------------------------------------------------|
 D|--2----------------2----------------2-------------------------5------------|
 A|--2----------------2----------------2----------------3--------5------------|
 E|--0----------------0----------------0----------------3--------3------------|
 A|-----------------------------------------------------3---------------------|
                                                                              |
Intro: Guitar 2 (Clean)                                                       |
 B|------12---------------12---------------12---------------13----------------|
F#|----11---11----------11---11----------11---11----------11---11---11---11---|
 D|--14-------14------14-------14------14-------14------14-------14---14------|
 A|---------------------------------------------------------------------------|
 E|---------------------------------------------------------------------------|
 A|---------------------------------------------------------------------------|
                                                                              |
Intro: Guitar 3 (Distorted)                                                   |
 B|-----------5-b-(6)----------5-b-(6)----------5-b(6)------------(6)r-5------|
F#|---------------------------------------------------------------------------|
 D|---------------------------------------------------------------------------|
 A|---------------------------------------------------------------------------|
 E|---------------------------------------------------------------------------|
 A|---------------------------------------------------------------------------|

Verse 1: Guitar 1 (Distorted) PLAY 2 TIMES
 B|---------------------------------------------------------------------------|
F#|---------------------------------------------------------------------------|
 D|--2----------------2----------------2-------------------------5------------|
 A|--2----------------2----------------2----------------3--------5------------|
 E|--0----------------0----------------0----------------3--------3------------|
 A|-----------------------------------------------------3---------------------|

Verse 1: Guitar 1 (Distorted) PLAY 2 TIMES
 B|---------------------------------------------------------------------------|
F#|---------------------------------------------------------------------------|
 D|--2----------------2----------------2-------------------------5------------|
 A|--2----------------2----------------2----------------3--------5------------|
 E|--0----------------0----------------0----------------3--------3------------|
 A|-----------------------------------------------------3---------------------|
                                                                              |
Verse 1: Guitar 2 (Clean)                                                     |
 B|------12---------------12---------------12---------------13----------------|
F#|----11---11----------11---11----------11---11----------11---11---11---11---|
 D|--14-------14------14-------14------14-------14------14-------14---14------|
 A|---------------------------------------------------------------------------|
 E|---------------------------------------------------------------------------|
 A|---------------------------------------------------------------------------|
                                                                              |
Verse 1: Guitar 3 (Distorted) PLAY 2 TIMES                                    |
 B|-----------5-b-(6)----------5-b-(6)----------5-b(6)------------(6)r-5------|
F#|---------------------------------------------------------------------------|
 D|---------------------------------------------------------------------------|
 A|---------------------------------------------------------------------------|
 E|---------------------------------------------------------------------------|
 A|---------------------------------------------------------------------------|

Chorus: Guitar 1 (Distorted)
 B|---------------------------------------------------------------------------|
F#|---------------------------------------------------------------------------|
 D|--5--------------------------------------------------2----------4----------|
 A|--5----------------5----------------3----------------2----------4----------|
 E|--3----------------5----------------3----------------0----------2----------|
 A|-------------------5----------------3--------------------------------------|

Chorus: Guitar 1 (Distorted)
 B|---------------------------------------------------------------------------|
F#|---------------------------------------------------------------------------|
 D|--5------------------------------------------------------------------------|
 A|--5----------------5----------2----------3----------------3----------------|
 E|--3----------------5----------0----------3----------------3----------------|
 A|-------------------5---------------------3----------------3----------------|

Verse 2: Guitar 1 (Distorted) PLAY 3 TIMES
 B|---------------------------------------------------------------------------|
F#|---------------------------------------------------------------------------|
 D|--2----------------2----------------2-------------------------5------------|
 A|--2----------------2----------------2----------------3--------5------------|
 E|--0----------------0----------------0----------------3--------3------------|
 A|-----------------------------------------------------3---------------------|

Verse 2: Guitar 1 (Distorted) PLAY 2 TIMES
 B|---------------------------------------------------------------------------|
F#|---------------------------------------------------------------------------|
 D|--2----------------2----------------2-------------------------5------------|
 A|--2----------------2----------------2----------------3--------5------------|
 E|--0----------------0----------------0----------------3--------3------------|
 A|-----------------------------------------------------3---------------------|
                                                                              |
Verse 2: Guitar 2 (Clean)                                                     |
 B|------12---------------12---------------12---------------13----------------|
F#|----11---11----------11---11----------11---11----------11---11---11---11---|
 D|--14-------14------14-------14------14-------14------14-------14---14------|
 A|---------------------------------------------------------------------------|
 E|---------------------------------------------------------------------------|
 A|---------------------------------------------------------------------------|
                                                                              |
Verse 2: Guitar 3 (Distorted) PLAY 2 TIMES                                    |
 B|-----------5-b-(6)----------5-b-(6)----------5-b(6)------------(6)r-5------|
F#|---------------------------------------------------------------------------|
 D|---------------------------------------------------------------------------|
 A|---------------------------------------------------------------------------|
 E|---------------------------------------------------------------------------|
 A|---------------------------------------------------------------------------|

Chorus: Guitar 1 (Distorted)
 B|---------------------------------------------------------------------------|
F#|---------------------------------------------------------------------------|
 D|--5--------------------------------------------------2----------4----------|
 A|--5----------------5----------------3----------------2----------4----------|
 E|--3----------------5----------------3----------------0----------2----------|
 A|-------------------5----------------3--------------------------------------|

Chorus: Guitar 1 (Distorted)
 B|---------------------------------------------------------------------------|
F#|---------------------------------------------------------------------------|
 D|--5------------------------------------------------------------------------|
 A|--5----------------5----------2----------3----------------3----------------|
 E|--3----------------5----------0----------3----------------3----------------|
 A|-------------------5---------------------3----------------3----------------|

Bridge: Guitar 1 (Distorted) PLAY 1 TIME
 B|---------------------------------------------------------------------------|
F#|---------------------------------------------------------------------------|
 D|---------------2------------------2----------------------2--------------5--|
 A|--222-222-222--2---------222-222--2---------222-222-222--2-------3------5--|
 E|--000-000-000--0---------000-000--0---------000-000-000--0-------3------3--|
 A|-----------------------------------------------------------------3---------|
     Pmpmpmpmpmpm           pmpmpmpm           pmpmpmpmpmpm                   |
                                                                              |
Bridge: Guitar 3 (Distorted with Slide) PLAY 1 TIME                           |
 B|---------------------------------------------------------------------------|
F#|---------------------------------------------------------------------------|
 D|---------------------------------------------------------------------------|
 A|-------------------1-/------/------/------/------12-/13-/-14-\-13-/-14-----|
 E|---------------------------------------------------------------------------|
 A|---------------------------------------------------------------------------|

Bridge: Guitar 1 (Distorted) PLAY 5 TIMES
 B|---------------------------------------------------------------------------|
F#|---------------------------------------------------------------------------|
 D|---------------2------------------2----------------------2--------------5--|
 A|--222-222-222--2---------222-222--2---------222-222-222--2-------3------5--|
 E|--000-000-000--0---------000-000--0---------000-000-000--0-------3------3--|
 A|-----------------------------------------------------------------3---------|
     Pmpmpmpmpmpm           pmpmpmpm           pmpmpmpmpmpm                   |
                                                                              |
Bridge: Guitar 3 (Distorted with Slide) PLAY 5 TIMES                          |
 B|---------------------------------------------------------------------------|
F#|---------------------------------------------------------------------------|
 D|---------------------------------------------------------------------------|
 A|-/13------/------14--\--13-----/----14--\--13------/------14--\--13--\-12--|
 E|---------------------------------------------------------------------------|
 A|---------------------------------------------------------------------------|

Chorus: Guitar 1 (Distorted) PLAY 3 TIMES (FADE OUT ON 3RD TIME)
 B|---------------------------------------------------------------------------|
F#|---------------------------------------------------------------------------|
 D|--5--------------------------------------------------2----------4----------|
 A|--5----------------5----------------3----------------2----------4----------|
 E|--3----------------5----------------3----------------0----------2----------|
 A|-------------------5----------------3--------------------------------------|

Chorus: Guitar 1 (Distorted)
 B|---------------------------------------------------------------------------|
F#|---------------------------------------------------------------------------|
 D|--5------------------------------------------------------------------------|
 A|--5----------------5----------2----------3----------------3----------------|
 E|--3----------------5----------0----------3----------------3----------------|
 A|-------------------5---------------------3----------------3----------------|

Finished!


            
            
Suggest correction
Creating personal tab
Creating personal tab
You can edit any tab online and save it as your Personal.

You can edit, replace or remove any tab part or add personal notes – all changes will be seen only by you.

Personal tabs can be accessed anytime from any device, even offline.
Learn more »
Give kudos to tab author, rate the tab!
1 2 3 4 5
comments
print report bad tab
guest
You may want to rate the tab now too:
select rating
Wanna post a correction for this tab? Suggest correction