Oops, an error
Loading. Please wait.

Money tab

version 1
version 1

Whole song

4,917 views 1 this week
2 commentsread comments
1 2 3 4 5
x 3
add to favorites
×
Save as Personal and add changes to this tab that will be seen only by you. Learn more ›
×
You can save this tab as Personal to edit and correct it or add notes. All changes will be seen only by you. Learn more »
launch autoscroll
font size
0
reset
how to read this tab
guitar tuner
edit
Autoscroll
slow
fast
+/-
esc
set tempo
stop
Brian Head Welch
Money
Tabbed by U B the band
Tuning Bb F Bb Eb G C

Legend
p-pull off                        /-slide up                    \-slide down

Intro: Guitar 1 (Clean with delay every other note)
 C|-----------14---15--17-------14-----------------14---22--21-------18-------|
 G|-------15----------------15-------15--------15----------------19-------19--|
Eb|--16-----------------------------------16----------------------------------|
Bb|---------------------------------------------------------------------------|
 F|---------------------------------------------------------------------------|
Bb|---------------------------------------------------------------------------|

Intro B: Guitar 1 (distorted with effects) PLAY INTRO B 2 TIMES
 C|----------------------14-----------------------------------------------14--|
 G|-------15--------15---------17---15---17---------15--------15----17--------|
Eb|--16--------16------------------------------16--------16-------------------|
Bb|---------------------------------------------------------------------------|
 F|---------------------------------------------------------------------------|
Bb|---------------------------------------------------------------------------|
                                                                              |
Intro B: Guitar 2 (Distorted)                                                 |
 C|---------------------------------------------------------------------------|
 G|---------------------------------------------------------------------------|
Eb|--4----4---------------------------------------------------------2---------|
Bb|--4----4--------------5-----5---------------0----0---------------2-----4---|
 F|--2----2--------------5-----5---------------0----0---------------0-----4---|
Bb|----------------------5-----5---------------0----0---------------------4---|

Intro B: Guitar 1 (distorted with effects)
 C|----------------------14-----------------------------------------14--------|
 G|-------15--------15---------17---15---17---------15--------15----------14--|
Eb|--16--------16------------------------------16--------16-------------------|
Bb|---------------------------------------------------------------------------|
 F|---------------------------------------------------------------------------|
Bb|---------------------------------------------------------------------------|
                                                                              |
Intro B: Guitar 2 (Distorted)                                                 |
 C|---------------------------------------------------------------------------|
 G|---------------------------------------------------------------------------|
Eb|--4----4-------------------------------------------------------------------|
Bb|--4----4--------------5-----5---------------0----0---------------4-----4---|
 F|--2----2--------------5-----5---------------0----0---------------4-----4---|
Bb|----------------------5-----5---------------0----0---------------4-----4---|

Verse 1: Guitar 1 (Clean with delay every other note) PLAY 2 TIMES
 C|-----------14---15--17-------14-----------------14---22--21-------18-------|
 G|-------15----------------15-------15--------15----------------19-------19--|
Eb|--16-----------------------------------16----------------------------------|
Bb|---------------------------------------------------------------------------|
 F|---------------------------------------------------------------------------|
Bb|---------------------------------------------------------------------------|
                                                                              |
Verse 1: Guitar 2 (Distorted)                                                 |
 C|---------------------------------------------------------------------------|
 G|---------------------------------------------------------------------------|
Eb|--4---4--------------------------------4---4-------------------------------|
Bb|--4---4-------------5----5--------4----4---4-------------5----0---4--------|
 F|--2---2-------------5----5--------4----2---2-------------5----0---4--------|
Bb|--------------------5----5--------4----------------------5----0---4--------|

Pre Chorus: Guitar 1 (Distorted with effects)
 C|---------------------------------------------------------------------------|
 G|------19----19-17-19-----19-17-------------19----19-17-19------------------|
EB|--16-----19----------16--------19-16-15-16----19----------18-16------15----|
Bb|----------------------------------------------------------------16---------|
 F|---------------------------------------------------------------------------|
Bb|---------------------------------------------------------------------------|
                                                                              |
Pre Chorus: Guitar 2 (Distorted)                                              |
 C|---------------------------------------------------------------------------|
 G|---------------------------------------------------------------------------|
Eb|----------------------------------------------------------------2----------|
Bb|--4-4-4-4-4-4-4-p0---5-5-5-5-5---4---4-4-4-4-4-4-4-p0-----5-----2-----4----|
 F|--2-2-2-2-2-2-2-p0---5-5-5-5-5---4---2-2-2-2-2-2-2-p0-----5-----0-----4----|
Bb|---------------------5-5-5-5-5---4------------------------5-----------4----|

Pre Chorus: Guitar 1 (Distorted with effects)
 C|----------------------------------------------------------------------18---|
 G|------19----19-17-19-----19-17-------------19----19-17-19-19--20--17-------|
EB|--16-----19----------16--------19-16-15-16----19---------------------------|
Bb|---------------------------------------------------------------------------|
 F|---------------------------------------------------------------------------|
Bb|---------------------------------------------------------------------------|
                                                                              |
Pre Chorus: Guitar 2 (Distorted)                                              |
 C|---------------------------------------------------------------------------|
 G|---------------------------------------------------------------------------|
Eb|---------------------------------------------------------------------------|
Bb|--4-4-4-4-4-4-4-p0---5-5-5-5-5---4---4-4-4-4-4-4-4-p0-----5---0---7---4----|
 F|--2-2-2-2-2-2-2-p0---5-5-5-5-5---4---2-2-2-2-2-2-2-p0-----5---0---7---4----|
Bb|---------------------5-5-5-5-5---4------------------------5---0---7---4----|

Chorus: Guitar 1 (distorted with effects) PLAY 2 TIMES
 C|----------------------14-----------------------------------------------14--|
 G|-------15--------15---------17---15---17---------15--------15----17--------|
Eb|--16--------16------------------------------16--------16-------------------|
Bb|---------------------------------------------------------------------------|
 F|---------------------------------------------------------------------------|
Bb|---------------------------------------------------------------------------|
                                                                              |
Chorus: Guitar 2 (Distorted)                                                  |
 C|---------------------------------------------------------------------------|
 G|---------------------------------------------------------------------------|
Eb|--4----4---------------------------------------------------------2---------|
Bb|--4----4--------------5-----5---------------0----0---------------2-----4---|
 F|--2----2--------------5-----5---------------0----0---------------0-----4---|
Bb|----------------------5-----5---------------0----0---------------------4---|

Chorus: Guitar 1 (distorted with effects)
 C|----------------------14-----------------------------------------14--------|
 G|-------15--------15---------17---15---17---------15--------15----------14--|
Eb|--16--------16------------------------------16--------16-------------------|
Bb|---------------------------------------------------------------------------|
 F|---------------------------------------------------------------------------|
Bb|---------------------------------------------------------------------------|
                                                                              |
Chorus: Guitar 2 (Distorted)                                                  |
 C|---------------------------------------------------------------------------|
 G|---------------------------------------------------------------------------|
Eb|--4----4-------------------------------------------------------------------|
Bb|--4----4--------------5-----5---------------0----0---------------4-----4---|
 F|--2----2--------------5-----5---------------0----0---------------4-----4---|
Bb|----------------------5-----5---------------0----0---------------4-----4---|

Post Chorus: Guitar 2 (Distorted)
 C|---------------------------------------------------------------------------|
 G|---------------------------------------------------------------------------|
Eb|--4------------------------------------------------------------------------|
Bb|--4------------------------------------------------------------------------|
 F|--2------------------------------------------------------------------------|
Bb|---------------------------------------------------------------------------|

Verse 2: Guitar 1 (Clean with delay every other note) PLAY 2 TIMES
 C|-----------14---15--17-------14-----------------14---22--21-------18-------|
 G|-------15----------------15-------15--------15----------------19-------19--|
Eb|--16-----------------------------------16----------------------------------|
Bb|---------------------------------------------------------------------------|
 F|---------------------------------------------------------------------------|
Bb|---------------------------------------------------------------------------|
                                                                              |
Verse 2: Guitar 2 (Distorted)                                                 |
 C|---------------------------------------------------------------------------|
 G|---------------------------------------------------------------------------|
Eb|--4---4--------------------------------4---4-------------------------------|
Bb|--4---4-------------5----5--------4----4---4-------------5----0---4--------|
 F|--2---2-------------5----5--------4----2---2-------------5----0---4--------|
Bb|--------------------5----5--------4----------------------5----0---4--------|

Pre Chorus: Guitar 1 (Distorted with effects)
 C|---------------------------------------------------------------------------|
 G|------19----19-17-19-----19-17-------------19----19-17-19------------------|
EB|--16-----19----------16--------19-16-15-16----19----------18-16------15----|
Bb|----------------------------------------------------------------16---------|
 F|---------------------------------------------------------------------------|
Bb|---------------------------------------------------------------------------|
                                                                              |
Pre Chorus: Guitar 2 (Distorted)                                              |
 C|---------------------------------------------------------------------------|
 G|---------------------------------------------------------------------------|
Eb|----------------------------------------------------------------2----------|
Bb|--4-4-4-4-4-4-4-p0---5-5-5-5-5---4---4-4-4-4-4-4-4-p0-----5-----2-----4----|
 F|--2-2-2-2-2-2-2-p0---5-5-5-5-5---4---2-2-2-2-2-2-2-p0-----5-----0-----4----|
Bb|---------------------5-5-5-5-5---4------------------------5-----------4----|

Pre Chorus: Guitar 1 (Distorted with effects)
 C|----------------------------------------------------------------------18---|
 G|------19----19-17-19-----19-17-------------19----19-17-19-19--20--17-------|
EB|--16-----19----------16--------19-16-15-16----19---------------------------|
Bb|---------------------------------------------------------------------------|
 F|---------------------------------------------------------------------------|
Bb|---------------------------------------------------------------------------|
                                                                              |
Pre Chorus: Guitar 2 (Distorted)                                              |
 C|---------------------------------------------------------------------------|
 G|---------------------------------------------------------------------------|
Eb|---------------------------------------------------------------------------|
Bb|--4-4-4-4-4-4-4-p0---5-5-5-5-5---4---4-4-4-4-4-4-4-p0-----5---0---7---4----|
 F|--2-2-2-2-2-2-2-p0---5-5-5-5-5---4---2-2-2-2-2-2-2-p0-----5---0---7---4----|
Bb|---------------------5-5-5-5-5---4------------------------5---0---7---4----|

Chorus: Guitar 1 (distorted with effects) PLAY 2 TIMES
 C|----------------------14-----------------------------------------------14--|
 G|-------15--------15---------17---15---17---------15--------15----17--------|
Eb|--16--------16------------------------------16--------16-------------------|
Bb|---------------------------------------------------------------------------|
 F|---------------------------------------------------------------------------|
Bb|---------------------------------------------------------------------------|
                                                                              |
Chorus: Guitar 2 (Distorted)                                                  |
 C|---------------------------------------------------------------------------|
 G|---------------------------------------------------------------------------|
Eb|--4----4---------------------------------------------------------2---------|
Bb|--4----4--------------5-----5---------------0----0---------------2-----4---|
 F|--2----2--------------5-----5---------------0----0---------------0-----4---|
Bb|----------------------5-----5---------------0----0---------------------4---|

Chorus: Guitar 1 (distorted with effects)
 C|----------------------14-----------------------------------------14--------|
 G|-------15--------15---------17---15---17---------15--------15----------14--|
Eb|--16--------16------------------------------16--------16-------------------|
Bb|---------------------------------------------------------------------------|
 F|---------------------------------------------------------------------------|
Bb|---------------------------------------------------------------------------|
                                                                              |
Chorus: Guitar 2 (Distorted)                                                  |
 C|---------------------------------------------------------------------------|
 G|---------------------------------------------------------------------------|
Eb|--4----4-------------------------------------------------------------------|
Bb|--4----4--------------5-----5---------------0----0---------------4-----4---|
 F|--2----2--------------5-----5---------------0----0---------------4-----4---|
Bb|----------------------5-----5---------------0----0---------------4-----4---|

Post Chorus: Guitar 1 (Clean with delay every other note) PLAY 2 TIMES
 C|-----------14---15--17-------14-----------------14---22--21-------18-------|
 G|-------15----------------15-------15--------15----------------19-------19--|
Eb|--16-----------------------------------16----------------------------------|
Bb|---------------------------------------------------------------------------|
 F|---------------------------------------------------------------------------|
Bb|---------------------------------------------------------------------------|
                                                                              |
Post Chorus: Guitar 2 (Distorted)                                             |
 C|---------------------------------------------------------------------------|
 G|---------------------------------------------------------------------------|
Eb|--4------------------------------------------------------------------------|
Bb|--4------------------------------------------------------------------------|
 F|--2------------------------------------------------------------------------|
Bb|---------------------------------------------------------------------------|

Bridge: Guitars 1 & 2 (Distorted) PLAY 2 TIMES
 C|---------------------------------------------------------------------------|
 G|---------------------------------------------------------------------------|
Eb|--4-4-4----4-4-4-----------------------------------------------------------|
Bb|--4-4-4----4-4-4----5-5-5-5-5-5-5----0-0-0---0-0-0----4-4-4-4-4-4----5-----|
 F|--2-2-2----2-2-2----5-5-5-5-5-5-5----0-0-0---0-0-0----4-4-4-4-4-4----3-----|
Bb|--------------------5-5-5-5-5-5-5----0-0-0---0-0-0----4-4-4-4-4-4----------|

Bridge: Guitars 1 & 2 (Distorted) PLAY 4 TIMES
 C|---------------------------------------------------------------------------|
 G|---------------------------------------------------------------------------|
Eb|---------------------------------------------------------------------------|
Bb|--4------4/5\4/5\4/5\4------4----------4------4/5\4/5\4/5\4------4---------|
 F|--2------2/3\2/3\2/3\2------2----------2------2/3\2/3\2/3\2------2---------|
Bb|---------------------------------------------------------------------------|

Post Bridge: Guitar 1 (distorted with effects)
 C|----------------------14-----------------------------------------------14--|
 G|-------15--------15---------17---15---17---------15--------15----17--------|
Eb|--16--------16------------------------------16--------16-------------------|
Bb|---------------------------------------------------------------------------|
 F|---------------------------------------------------------------------------|
Bb|---------------------------------------------------------------------------|
                                                                              |
Post Bridge: Guitar 2 (Distorted)                                             |
 C|---------------------------------------------------------------------------|
 G|---------------------------------------------------------------------------|
Eb|--4------------------------------------------------------------------------|
Bb|--4------------------------------------------------------------------------|
 F|--2------------------------------------------------------------------------|
Bb|---------------------------------------------------------------------------|

Post Bridge
 C|----------------------14-----------------------------------------14--------|
 G|-------15--------15---------17---15---17---------15--------15----------14--|
Eb|--16--------16------------------------------16--------16-------------------|
Bb|---------------------------------------------------------------------------|
 F|---------------------------------------------------------------------------|
Bb|---------------------------------------------------------------------------|
                                                                              |
Post Bridge: Guitar 2 (Distorted)                                             |
 C|---------------------------------------------------------------------------|
 G|---------------------------------------------------------------------------|
Eb|--4------------------------------------------------------------------------|
Bb|--4------------------------------------------------------------------------|
 F|--2------------------------------------------------------------------------|
Bb|---------------------------------------------------------------------------|

Chorus: Guitar 1 (distorted with effects) PLAY 2 TIMES
 C|----------------------14-----------------------------------------------14--|
 G|-------15--------15---------17---15---17---------15--------15----17--------|
Eb|--16--------16------------------------------16--------16-------------------|
Bb|---------------------------------------------------------------------------|
 F|---------------------------------------------------------------------------|
Bb|---------------------------------------------------------------------------|
                                                                              |
Chorus: Guitar 2 (Distorted)                                                  |
 C|---------------------------------------------------------------------------|
 G|---------------------------------------------------------------------------|
Eb|--4----4---------------------------------------------------------2---------|
Bb|--4----4--------------5-----5---------------0----0---------------2-----4---|
 F|--2----2--------------5-----5---------------0----0---------------0-----4---|
Bb|----------------------5-----5---------------0----0---------------------4---|

Chorus: Guitar 1 (distorted with effects)
 C|----------------------14-----------------------------------------14--------|
 G|-------15--------15---------17---15---17---------15--------15----------14--|
Eb|--16--------16------------------------------16--------16-------------------|
Bb|---------------------------------------------------------------------------|
 F|---------------------------------------------------------------------------|
Bb|---------------------------------------------------------------------------|
                                                                              |
Chorus: Guitar 2 (Distorted)                                                  |
 C|---------------------------------------------------------------------------|
 G|---------------------------------------------------------------------------|
Eb|--4----4-------------------------------------------------------------------|
Bb|--4----4--------------5-----5---------------0----0---------------4-----4---|
 F|--2----2--------------5-----5---------------0----0---------------4-----4---|
Bb|----------------------5-----5---------------0----0---------------4-----4---|

Outro: Guitar 1 (Clean with delay every other note) FADE OUT
 C|-----------14---15--17-------14-----------------14---22--21-------18-------|
 G|-------15----------------15-------15--------15----------------19-------19--|
Eb|--16-----------------------------------16----------------------------------|
Bb|---------------------------------------------------------------------------|
 F|---------------------------------------------------------------------------|
Bb|---------------------------------------------------------------------------|
                                                                              |
Outro: Guitar 2 (Distorted)                                                   |
 C|---------------------------------------------------------------------------|
 G|---------------------------------------------------------------------------|
Eb|--4------------------------------------------------------------------------|
Bb|--4------------------------------------------------------------------------|
 F|--2------------------------------------------------------------------------|
Bb|---------------------------------------------------------------------------|

Finished!

            
            
Suggest correction
Creating personal tab
Creating personal tab
You can edit any tab online and save it as your Personal.

You can edit, replace or remove any tab part or add personal notes – all changes will be seen only by you.

Personal tabs can be accessed anytime from any device, even offline.
Learn more »
Give kudos to tab author, rate the tab!
1 2 3 4 5
comments
print report bad tab
2 comments total.
0 reply
Jesus_ismy_Hero 10 Jan 19, 2011 08:13 AM

hey um can u play this A E A D F# B like most other brian songs?

0 reply
U B the band 3,023 Jan 19, 2011 10:03 AM

Yeah. You just have to move each note/chord up one fret.

guest
You may want to rate the tab now too:
select rating
Wanna post a correction for this tab? Suggest correction