Oops, an error
Loading. Please wait.

Save Me From Myself tab

version 1
version 1

Whole song

6,238 views 1 this week
no commentswrite comment
1 2 3 4 5
3 more votes to show rating
add to favorites
×
Save as Personal and add changes to this tab that will be seen only by you. Learn more ›
×
You can save this tab as Personal to edit and correct it or add notes. All changes will be seen only by you. Learn more »
launch autoscroll
font size
0
reset
how to read this tab
guitar tuner
edit
Autoscroll
slow
fast
+/-
esc
set tempo
stop

Brian Head Welch
Save Me From Myself
Tabbed by U B the band
Tuning A E A D F# B

Legend
pm-palm mute                       b-bend

Intro: Guitar 1 (Distorted) PLAY 1 TIME
 B|---------------------------------------------------------------------------|
F#|---------------------------------------------------------------------------|
 D|---------------------------------------------------------------------------|
 A|--0---1---1------------------------1---2---1---1------------------------1--|
 E|--0---1---1----------------------1-1---2---1---1----------------------1-1--|
 A|--0---1---1----------------------1-1---2---1---1----------------------1-1--|
                                    pmpm                                 pmpm |
                                                                              |
Intro: Guitar 2 (Distorted) PLAY 1 TIME                                       |
 B|---------------------------------------------------------------------------|
F#|----------------------------------16b(17)------------------------------16b-|
 D|---------------------------------------------------------------------------|
 A|---------------------------------------------------------------------------|
 E|---------------------------------------------------------------------------|
 A|---------------------------------------------------------------------------|

Verse 1: Guitar 1 (Distorted) PLAY 4 TIMES
 B|---------------------------------------------------------------------------|
F#|---------------------------------------------------------------------------|
 D|---------------------------------------------------------------------------|
 A|--0---1---1------------------------1---2---1---1------------------------1--|
 E|--0---1---1----------------------1-1---2---1---1----------------------1-1--|
 A|--0---1---1----------------------1-1---2---1---1----------------------1-1--|
                                    pmpm                                 pmpm |
                                                                              |
Verse 1: Guitar 2 (Distorted) PLAY 4 TIMES                                    |
 B|---------------------------------------------------------------------------|
F#|----------------------------------16b(17)------------------------------16b-|
 D|---------------------------------------------------------------------------|
 A|---------------------------------------------------------------------------|
 E|---------------------------------------------------------------------------|
 A|---------------------------------------------------------------------------|

Pre Chorus: Guitar 1 (Distorted) PLAY 4 TIMES
 B|---------------------------------------------------------------------------|
F#|---------------------------------------------------------------------------|
 D|---------------------------------------------------------------------------|
 A|--0---1---1----------1-------x---1----2---1---1----------1---1---x---1-----|
 E|--0---1---1----------1-------x---1----2---1---1----------1---1---x---1-----|
 A|--0---1---1----------1-------x---1----2---1---1----------1---1---x---1-----|

Chorus: Guitar 1 (Distorted) PLAY 2 TIMES
 B|---------------------------------------------------------------------------|
F#|---------------------------------------------------------------------------|
 D|----------------------------------------2----------------------------------|
 A|--6------------------4------------------2------------------2---------------|
 E|--6------------------4------------------0------------------2---------------|
 A|--6------------------4-------------------------------------2---------------|
                                                                              |
Chorus: Guitar 2 (clean for Piano) PLAY 2 TIMES                               |
 B|------19-----------------18-----------------21-----------------16--14------|
F#|--16-----19-16-17-16-14-----17-14-16-14-17-----19-16-17-16-------------17--|
 D|---------------------------------------------------------------------------|
 A|---------------------------------------------------------------------------|
 E|---------------------------------------------------------------------------|
 A|---------------------------------------------------------------------------|

Verse 2: Guitar 1 (Distorted) PLAY 2 TIMES
 B|---------------------------------------------------------------------------|
F#|---------------------------------------------------------------------------|
 D|---------------------------------------------------------------------------|
 A|--0---1---1------------------------1---2---1---1------------------------1--|
 E|--0---1---1----------------------1-1---2---1---1----------------------1-1--|
 A|--0---1---1----------------------1-1---2---1---1----------------------1-1--|
                                    pmpm                                 pmpm |
                                                                              |
Verse 2: Guitar 2 (Distorted) PLAY 2 TIMES                                    |
 B|------|--------------------------------------------------------------------|
F#|--16--|---------------------------16b(17)------------------------------16b-|
 D|------|--------------------------------------------------------------------|
 A|------|--------------------------------------------------------------------|
 E|------|--------------------------------------------------------------------|
 A|------|--------------------------------------------------------------------|
     ^--PLAY 16 FIRST TIME ONLY

Pre Chorus: Guitar 1 (Distorted) PLAY 4 TIMES
 B|---------------------------------------------------------------------------|
F#|---------------------------------------------------------------------------|
 D|---------------------------------------------------------------------------|
 A|--0---1---1----------1-------x---1----2---1---1----------1---1---x---1-----|
 E|--0---1---1----------1-------x---1----2---1---1----------1---1---x---1-----|
 A|--0---1---1----------1-------x---1----2---1---1----------1---1---x---1-----|

Chorus: Guitar 1 (Distorted) PLAY 2 TIMES
 B|---------------------------------------------------------------------------|
F#|---------------------------------------------------------------------------|
 D|----------------------------------------2----------------------------------|
 A|--6------------------4------------------2------------------2---------------|
 E|--6------------------4------------------0------------------2---------------|
 A|--6------------------4-------------------------------------2---------------|
                                                                              |
Chorus: Guitar 2 (clean for Piano) PLAY 2 TIMES                               |
 B|------19-----------------18-----------------21-----------------16--14------|
F#|--16-----19-16-17-16-14-----17-14-16-14-17-----19-16-17-16-------------17--|
 D|---------------------------------------------------------------------------|
 A|---------------------------------------------------------------------------|
 E|---------------------------------------------------------------------------|
 A|---------------------------------------------------------------------------|

Bridge: Guitar 1 (Distorted) PLAY 4 TIMES
 B|---------------------------------------------------------------------------|
F#|---------------------------------------------------------------------------|
 D|---------------------------------------------------------------------------|
 A|--0---1---1------------------------1---2---1---1------------------------1--|
 E|--0---1---1----------------------1-1---2---1---1----------------------1-1--|
 A|--0---1---1----------------------1-1---2---1---1----------------------1-1--|
                                    pmpm                                 pmpm |
                                                                              |
Bridge: Guitar 2 (Distorted) PLAY 4 TIMES                                     |
 B|------|--------------------------------------------------------------------|
F#|--16--|---------------------------16b(17)------------------------------16b-|
 D|------|--------------------------------------------------------------------|
 A|------|--------------------------------------------------------------------|
 E|------|--------------------------------------------------------------------|
 A|------|--------------------------------------------------------------------|
     ^--PLAY 16 FIRST TIME ONLY

Bridge: Guitar 1 (Distorted) PLAY 4 TIMES
 B|---------------------------------------------------------------------------|
F#|---------------------------------------------------------------------------|
 D|---------------------------------------------------------------------------|
 A|--0---1---1----------1-------x---1----2---1---1----------1---1---x---1-----|
 E|--0---1---1----------1-------x---1----2---1---1----------1---1---x---1-----|
 A|--0---1---1----------1-------x---1----2---1---1----------1---1---x---1-----|

Bridge: Guitar 1 (Distorted) PLAY 1 TIME
 B|---------------------------------------------------------------------------|
F#|---------------------------------------------------------------------------|
 D|---------------------------------------------------------------------------|
 A|--0---1---1------------------------1---2---1---1------------------------1--|
 E|--0---1---1----------------------1-1---2---1---1----------------------1-1--|
 A|--0---1---1----------------------1-1---2---1---1----------------------1-1--|
                                    pmpm                                 pmpm |
                                                                              |
Bridge: Guitar 2 (Distorted) PLAY 1 TIME                                      |
 B|---------------------------------------------------------------------------|
F#|----------------------------------16b(17)------------------------------16b-|
 D|---------------------------------------------------------------------------|
 A|---------------------------------------------------------------------------|
 E|---------------------------------------------------------------------------|
 A|---------------------------------------------------------------------------|

Bridge: Guitar 1 (Distorted) PLAY 4 TIMES
 B|---------------------------------------------------------------------------|
F#|---------------------------------------------------------------------------|
 D|----------------------------------------2----------------------------------|
 A|--6------------------4------------------2------------------2---------------|
 E|--6------------------4------------------0------------------2---------------|
 A|--6------------------4-------------------------------------2---------------|
                                                                              |
Bridge: Guitar 2 (clean for Piano) PLAY 4 TIMES                               |
 B|------19-----------------18-----------------21-----------------16--14------|
F#|--16-----19-16-17-16-14-----17-14-16-14-17-----19-16-17-16-------------17--|
 D|---------------------------------------------------------------------------|
 A|---------------------------------------------------------------------------|
 E|---------------------------------------------------------------------------|
 A|---------------------------------------------------------------------------|

Chorus: Guitar 1 (Distorted) PLAY 2 TIMES
 B|---------------------------------------------------------------------------|
F#|---------------------------------------------------------------------------|
 D|----------------------------------------2----------------------------------|
 A|--6------------------4------------------2------------------2---------------|
 E|--6------------------4------------------0------------------2---------------|
 A|--6------------------4-------------------------------------2---------------|
                                                                              |
Chorus: Guitar 2 (clean for Piano) PLAY 2 TIMES                               |
 B|------19-----------------18-----------------21-----------------16--14------|
F#|--16-----19-16-17-16-14-----17-14-16-14-17-----19-16-17-16-------------17--|
 D|---------------------------------------------------------------------------|
 A|---------------------------------------------------------------------------|
 E|---------------------------------------------------------------------------|
 A|---------------------------------------------------------------------------|

Outro: Guitar 1 (Distorted) PLAY 1 TIME
 B|---------------------------------------------------------------------------|
F#|---------------------------------------------------------------------------|
 D|---------------------------------------------------------------------------|
 A|--0---1---1------------------------1---------------------------------------|
 E|--0---1---1----------------------1-1---------------------------------------|
 A|--0---1---1----------------------1-1---------------------------------------|
                                    pmpm                                      |
                                                                              |
Outro: Guitar 2 (Distorted) PLAY 1 TIME                                       |
 B|---------------------------------------------------------------------------|
F#|--16------------------------------16b(17)----------------------------------|
 D|---------------------------------------------------------------------------|
 A|---------------------------------------------------------------------------|
 E|---------------------------------------------------------------------------|
 A|---------------------------------------------------------------------------|

Finished!

            
            
Suggest correction
Creating personal tab
Creating personal tab
You can edit any tab online and save it as your Personal.

You can edit, replace or remove any tab part or add personal notes – all changes will be seen only by you.

Personal tabs can be accessed anytime from any device, even offline.
Learn more »
Give kudos to tab author, rate the tab!
1 2 3 4 5
comments
print report bad tab
guest
You may want to rate the tab now too:
select rating
Wanna post a correction for this tab? Suggest correction