Oops, an error
Loading. Please wait.

Save Me From Myself tab

version 2
version 2

Whole song

2,132 views 1 this week
no commentswrite comment
1 2 3 4 5
2 more votes to show rating
add to favorites
×
Save as Personal and add changes to this tab that will be seen only by you. Learn more ›
×
You can save this tab as Personal to edit and correct it or add notes. All changes will be seen only by you. Learn more »
launch autoscroll
font size
0
reset
how to read this tab
guitar tuner
edit
Autoscroll
slow
fast
+/-
esc
set tempo
stop
Author
 
  Artist:Brian Head Welch
  Song:Save Me From Myself
  Album:Save Me From Myself
  Tabbed By:Head18902
 
  Legend: b-Bend, PM- Palm Mute, x-Mute string

  Note:I Know He doesn't use a 7 string on this album
       but it works on either a 7 or 6 string.

 Intro 1x
d|----------------------------------------------------|
a|-------------------13b(14)------------------13b(14)-|
F|----------------------------------------------------|
C|----------------------------------------------------|
G|-2---3--3--------3--------4--3--3---------3---------|
D|-2---3--3--------3--------4--3--3---------3---------|
A|-0---1--1--------1--------2--1--1---------1---------|
                  PM                       PM            
 Verse 4x
d|----------------------------------------------------|
a|-------------------13b(14)------------------13b(14)-|
F|----------------------------------------------------|
C|----------------------------------------------------|
G|-2---3--3--------3--------4--3--3---------3---------|
D|-2---3--3--------3--------4--3--3---------3---------|
A|-0---1--1--------1--------2--1--1---------1---------|
                  PM                       PM           

 Lead Fill (Clean Guitar For Piano)  (Only Play Last Two Times Of Verse)
d|----16----------------15----------------18-------------13-12----|
a|-13----16-13-14-13-12----14-12-13-12-14---16-13-14-13--------14-|
F|----------------------------------------------------------------|
C|----------------------------------------------------------------|
G|----------------------------------------------------------------|
D|----------------------------------------------------------------|
A|----------------------------------------------------------------|

 Pre-Chours 4x
d|----------------------------------------------------------|
a|----------------------------------------------------------|
F|----------------------------------------------------------|
C|----------------------------------------------------------|
G|-2---3--3---------3-----x-3---4---3--3---------3--3--x-3--|
D|-2---3--3---------3-----x-3---4---3--3---------3--3--x-3--|
A|-0---1--1---------1-----x-1---2---1--1---------1--1--x-1--|

 Chours 2x
d|----------------------------------------------------------------|
a|----------------------------------------------------------------|
F|----------------------------------------------------------------|
C|-------------------------------------4--------------------------|
G|-8-----------------6-----------------4---------------4----------|
D|-8-----------------6-----------------2---------------4----------|
A|-6-----------------4---------------------------------2----------|


 Chours Lead Fill 2x (Clean Guitar For Piano)  
d|----16----------------15----------------18-------------13-12----|
a|-13----16-13-14-13-12----14-12-13-12-14---16-13-14-13--------14-|
F|----------------------------------------------------------------|
C|----------------------------------------------------------------|
G|----------------------------------------------------------------|
D|----------------------------------------------------------------|
A|----------------------------------------------------------------|

 Verse 2x
d|----------------------------------------------------|
a|-------------------13b(14)------------------13b(14)-|
F|----------------------------------------------------|
C|----------------------------------------------------|
G|-2---3--3--------3--------4--3--3---------3---------|
D|-2---3--3--------3--------4--3--3---------3---------|
A|-0---1--1--------1--------2--1--1---------1---------|
                  PM                       PM          

 Verse Lead Fill (Clean Guitar For Piano) (Play Last Time Only) 
d|----16----------------15----------------18-------------13-12----|
a|-13----16-13-14-13-12----14-12-13-12-14---16-13-14-13--------14-|
F|----------------------------------------------------------------|
C|----------------------------------------------------------------|
G|----------------------------------------------------------------|
D|----------------------------------------------------------------|
A|----------------------------------------------------------------|

 Pre-Chours 4x
d|----------------------------------------------------------|
a|----------------------------------------------------------|
F|----------------------------------------------------------|
C|----------------------------------------------------------|
G|-2---3--3---------3-----x-3---4---3--3---------3--3--x-3--|
D|-2---3--3---------3-----x-3---4---3--3---------3--3--x-3--|
A|-0---1--1---------1-----x-1---2---1--1---------1--1--x-1--|

 Chours 2x
d|----------------------------------------------------------------|
a|----------------------------------------------------------------|
F|----------------------------------------------------------------|
C|-------------------------------------4--------------------------|
G|-8-----------------6-----------------4---------------4----------|
D|-8-----------------6-----------------2---------------4----------|
A|-6-----------------4---------------------------------2----------|


 Chours Lead Fill 2x (Clean Guitar For Piano)  
d|----16----------------15----------------18-------------13-12----|
a|-13----16-13-14-13-12----14-12-13-12-14---16-13-14-13--------14-|
F|----------------------------------------------------------------|
C|----------------------------------------------------------------|
G|----------------------------------------------------------------|
D|----------------------------------------------------------------|
A|----------------------------------------------------------------|

 Bridge 4x
d|----------------------------------------------------|
a|-------------------13b(14)------------------13b(14)-|
F|----------------------------------------------------|
C|----------------------------------------------------|
G|-2---3--3--------3--------4--3--3---------3---------|
D|-2---3--3--------3--------4--3--3---------3---------|
A|-0---1--1--------1--------2--1--1---------1---------|
                  PM                       PM          

 Bridge Lead Fill 2x (Clean Guitar For Piano) (Last Two Times Only) 
d|----16----------------15----------------18-------------13-12----|
a|-13----16-13-14-13-12----14-12-13-12-14---16-13-14-13--------14-|
F|----------------------------------------------------------------|
C|----------------------------------------------------------------|
G|----------------------------------------------------------------|
D|----------------------------------------------------------------|
A|----------------------------------------------------------------|

 Bridge 4x
d|----------------------------------------------------------|
a|----------------------------------------------------------|
F|----------------------------------------------------------|
C|----------------------------------------------------------|
G|-2---3--3---------3-----x-3---4---3--3---------3--3--x-3--|
D|-2---3--3---------3-----x-3---4---3--3---------3--3--x-3--|
A|-0---1--1---------1-----x-1---2---1--1---------1--1--x-1--|


 Bridge 1x 
d|----------------------------------------------------|
a|-------------------13b(14)------------------13b(14)-|
F|----------------------------------------------------|
C|----------------------------------------------------|
G|-2---3--3--------3--------4--3--3---------3---------|
D|-2---3--3--------3--------4--3--3---------3---------|
A|-0---1--1--------1--------2--1--1---------1---------|
                  PM                       PM          
  Bridge Lead Fill 1x
d|----16----------------15----------------18-------------13-12----|
a|-13----16-13-14-13-12----14-12-13-12-14---16-13-14-13--------14-|
F|----------------------------------------------------------------|
C|----------------------------------------------------------------|
G|----------------------------------------------------------------|
D|----------------------------------------------------------------|
A|----------------------------------------------------------------|
 
Post-Bridge 4x
d|----------------------------------------------------------------|
a|----------------------------------------------------------------|
F|----------------------------------------------------------------|
C|-------------------------------------4--------------------------|
G|-8-----------------6-----------------4---------------4----------|
D|-8-----------------6-----------------2---------------4----------|
A|-6-----------------4---------------------------------2----------|


 Post-Bridge Lead Fill 4x (Clean Guitar For Piano)  
d|----16----------------15----------------18-------------13-12----|
a|-13----16-13-14-13-12----14-12-13-12-14---16-13-14-13--------14-|
F|----------------------------------------------------------------|
C|----------------------------------------------------------------|
G|----------------------------------------------------------------|
D|----------------------------------------------------------------|
A|----------------------------------------------------------------|

 Chours 2x
d|----------------------------------------------------------------|
a|----------------------------------------------------------------|
F|----------------------------------------------------------------|
C|-------------------------------------4--------------------------|
G|-8-----------------6-----------------4---------------4----------|
D|-8-----------------6-----------------2---------------4----------|
A|-6-----------------4---------------------------------2----------|


 Chours Lead Fill 2x (Clean Guitar For Piano)  
d|----16----------------15----------------18-------------13-12----|
a|-13----16-13-14-13-12----14-12-13-12-14---16-13-14-13--------14-|
F|----------------------------------------------------------------|
C|----------------------------------------------------------------|
G|----------------------------------------------------------------|
D|----------------------------------------------------------------|
A|----------------------------------------------------------------|
 
 Outro 1x
d|-----------------------------------|
a|--------------------------13b(14)--|
F|-----------------------------------|
C|-----------------------------------|
G|-2-----3--3-------------3----------|
D|-2-----3--3-------------3----------|
A|-0-----1--1-------------1----------|
                         PM           

Listen to the timing.




            
            
Suggest correction
Creating personal tab
Creating personal tab
You can edit any tab online and save it as your Personal.

You can edit, replace or remove any tab part or add personal notes – all changes will be seen only by you.

Personal tabs can be accessed anytime from any device, even offline.
Learn more »
Give kudos to tab author, rate the tab!
1 2 3 4 5
comments
print report bad tab
guest
You may want to rate the tab now too:
select rating
Wanna post a correction for this tab? Suggest correction