Oops, an error
Loading. Please wait.

Shake tab

version 1
version 1

Whole song

2,089 views 1 this week
no commentswrite comment
1 2 3 4 5
2 more votes to show rating
add to favorites
×
Save as Personal and add changes to this tab that will be seen only by you. Learn more ›
×
You can save this tab as Personal to edit and correct it or add notes. All changes will be seen only by you. Learn more »
launch autoscroll
font size
0
reset
how to read this tab
guitar tuner
edit
Autoscroll
slow
fast
+/-
esc
set tempo
stop
Brian Head Welch
Shake
Tabbed by U B the band
Tuning Bb F Bb Eb G C

Legend
\-slide down                      /-slide up

Intro: Guitar 1 (clean palm muted with effects)
 C|---------------------------------------------------------------------------|
 G|---------------------------------------------------------------------------|
Eb|---------------------------------------------------------------------------|
Bb|--4---2---4---2---4--2--4--2--4---2----5---4---5---4---5--4--5--4--5---4---|
 F|---------------------------------------------------------------------------|
Bb|---------------------------------------------------------------------------|

Intro: Guitar 1 (clean palm muted with effects)
 C|---------------------------------------------------------------------------|
 G|---------------------------------------------------------------------------|
Eb|---------------------------------------------------------------------------|
Bb|--4---0---4---0---4--0--4--0--4---0----------------------------------------|
 F|---------------------------------------7---4---7---4---7--4--7--4--7---4---|
Bb|---------------------------------------------------------------------------|

Intro: Guitar 1                         Verse 1: Guitar 1
 C|-------------------------------------|-------------------------------------|
 G|-------------------------------------|-------------------------------------|
Eb|-------------------------------------|-------------------------------------|
Bb|--4---2---4---2---4--2--4--2--4---2--|--4---2---4---2---4--2--4--2--4---2--|
 F|-------------------------------------|-------------------------------------|
Bb|-------------------------------------|-------------------------------------|
                                                                              |
Intro 1: Guitar 2 (silent)              Verse 1: Guitar 2 (Distorted)         |
 C|-------------------------------------|-------------------------------------|
 G|-------------------------------------|-------------------------------------|
Eb|-------------------------------------|-------------------------------------|
Bb|-------------------------------------|--10-\9----9--9----------------------|
 F|-------------------------------------|--10-\9----9--9----------------------|
Bb|-------------------------------------|--10-\9----9--9----------------------|

Verse 1: Guitar 1 (clean palm muted with effects)
 C|---------------------------------------------------------------------------|
 G|---------------------------------------------------------------------------|
Eb|---------------------------------------------------------------------------|
Bb|--5---4---5---4---5--4--5--4--5---4----4---0---4---0---4--0--4--0--4---0---|
 F|---------------------------------------------------------------------------|
Bb|---------------------------------------------------------------------------|
                                                                              |
Verse 1: Guitar 2 (Distorted)                                                 |
 C|---------------------------------------------------------------------------|
 G|---------------------------------------------------------------------------|
Eb|---------------------------------------------------------------------------|
Bb|--------10-\9---9--7------10-----------10-\9----9--9-----------------------|
 F|--------10-\9---9--7------10-----------10-\9----9--9-----------------------|
Bb|--------10-\9---9--7------10-----------10-\9----9--9-----------------------|

Verse 1: Guitar 1 (clean palm muted with effects)
 C|---------------------------------------------------------------------------|
 G|---------------------------------------------------------------------------|
Eb|---------------------------------------------------------------------------|
Bb|--5---4---5---4---5--4--5--4--5---4----4---2---4---2---4--2--4--2--4---2---|
 F|---------------------------------------------------------------------------|
Bb|---------------------------------------------------------------------------|
                                                                              |
Verse 1: Guitar 2 (Distorted)                                                 |
 C|---------------------------------------------------------------------------|
 G|---------------------------------------------------------------------------|
Eb|---------------------------------------------------------------------------|
Bb|--------10-\9---9----10----------------10-\9----9--9-----------------------|
 F|--------10-\9---9----10----------------10-\9----9--9-----------------------|
Bb|--------10-\9---9----10----------------10-\9----9--9-----------------------|

Verse 1: Guitar 1 (clean palm muted with effects)
 C|---------------------------------------------------------------------------|
 G|---------------------------------------------------------------------------|
Eb|---------------------------------------------------------------------------|
Bb|--5---4---5---4---5--4--5--4--5---4----4---0---4---0---4--0--4--0--4---0---|
 F|---------------------------------------------------------------------------|
Bb|---------------------------------------------------------------------------|
                                                                              |
Verse 1: Guitar 2 (Distorted)                                                 |
 C|---------------------------------------------------------------------------|
 G|---------------------------------------------------------------------------|
Eb|---------------------------------------------------------------------------|
Bb|--------10-\9---9--7------10-----------10-\9----9--9-----------------------|
 F|--------10-\9---9--7------10-----------10-\9----9--9-----------------------|
Bb|--------10-\9---9--7------10-----------10-\9----9--9-----------------------|

Verse 1: Guitar 1 (clean palm muted with effects)
 C|---------------------------------------------------------------------------|
 G|---------------------------------------------------------------------------|
Eb|---------------------------------------------------------------------------|
Bb|--5---4---5---4---5--4--5--4--5---4----4---2---4---2---4--2--4--2--4---2---|
 F|---------------------------------------------------------------------------|
Bb|---------------------------------------------------------------------------|
                                                                              |
Verse 1: Guitar 2 (Distorted)                                                 |
 C|---------------------------------------------------------------------------|
 G|---------------------------------------------------------------------------|
Eb|---------------------------------------------------------------------------|
Bb|--------10-\9---9----10----------------10-\9----9--9-----------------------|
 F|--------10-\9---9----10----------------10-\9----9--9-----------------------|
Bb|--------10-\9---9----10----------------10-\9----9--9-----------------------|

Verse 1: Guitar 1 (clean palm muted with effects)
 C|---------------------------------------------------------------------------|
 G|---------------------------------------------------------------------------|
Eb|---------------------------------------------------------------------------|
Bb|--5---4---5---4---5--4--5--4--5---4----4---0---4---0---4--0--4--0--4---0---|
 F|---------------------------------------------------------------------------|
Bb|---------------------------------------------------------------------------|
                                                                              |
Verse 1: Guitar 2 (Distorted)                                                 |
 C|---------------------------------------------------------------------------|
 G|---------------------------------------------------------------------------|
Eb|---------------------------------------------------------------------------|
Bb|--------10-\9---9--7------10-----------10-\9----9--9-----------------------|
 F|--------10-\9---9--7------10-----------10-\9----9--9-----------------------|
Bb|--------10-\9---9--7------10-----------10-\9----9--9-----------------------|

Verse 1: Guitar 1                       Pre Chorus: Guitar 1 
 C|-------------------------------------|-------------------------------------|
 G|-------------------------------------|-------------------------------------|
Eb|-------------------------------------|-------------------------------------|
Bb|-------------------------------------|--4---2---4---2---4--2--4--2--4---2--|
 F|--7---4---7---4---7--4--7--4--7---4--|-------------------------------------|
Bb|-------------------------------------|-------------------------------------|
                                                                              |
Verse 1: Guitar 2 (Distorted)           Pre Chorus: Guitar 2 (Distorted)      |
 C|-------------------------------------|-------------------------------------|
 G|-------------------------------------|-------------------------------------|
Eb|-------------------------------------|-------------------------------------|
Bb|--------10-\9---9----10--------------|--10-\9----9--9----------------------|
 F|--------10-\9---9----10--------------|--10-\9----9--9----------------------|
Bb|--------10-\9---9----10--------------|--10-\9----9--9----------------------|
                                                                              |
Verse 1: Guitar 3 (silent)              Pre Chorus: Guitar 3 (With effects)   |
 C|-------------------------------------|--17--/--19----19--\--17-------------|
 G|-------------------------------------|----------------------------19-------|
Eb|-------------------------------------|-------------------------------------|
Bb|-------------------------------------|-------------------------------------|
 F|-------------------------------------|-------------------------------------|
Bb|-------------------------------------|-------------------------------------|

Pre Chorus: Guitar 1 (clean palm muted with effects)
 C|---------------------------------------------------------------------------|
 G|---------------------------------------------------------------------------|
Eb|---------------------------------------------------------------------------|
Bb|--5---4---5---4---5--4--5--4--5---4----4---0---4---0---4--0--4--0--4---0---|
 F|---------------------------------------------------------------------------|
Bb|---------------------------------------------------------------------------|
                                                                              |
Pre Chorus: Guitar 2 (Distorted)                                              |
 C|---------------------------------------------------------------------------|
 G|---------------------------------------------------------------------------|
Eb|---------------------------------------------------------------------------|
Bb|--------10-\9---9--7------10-----------10-\9----9--9-----------------------|
 F|--------10-\9---9--7------10-----------10-\9----9--9-----------------------|
Bb|--------10-\9---9--7------10-----------10-\9----9--9-----------------------|
                                                                              |
Pre Chorus: Guitar 3 (With effects)                                           |
 C|--17--/--19----19--\--17----------------17--/--19----19--\--17-------------|
 G|----------------------------19------------------------------------19-------|
Eb|---------------------------------------------------------------------------|
Bb|---------------------------------------------------------------------------|
 F|---------------------------------------------------------------------------|
Bb|---------------------------------------------------------------------------|

Pre Chorus: Guitar 1 (clean palm muted with effects)
 C|---------------------------------------------------------------------------|
 G|---------------------------------------------------------------------------|
Eb|---------------------------------------------------------------------------|
Bb|---------------------------------------------------------------------------|
 F|--7---4---7---4---7--4--7--4--7---4----------------------------------------|
Bb|---------------------------------------------------------------------------|
                                                                              |
Pre Chorus: Guitar 2 (Distorted)                                              |
 C|---------------------------------------------------------------------------|
 G|---------------------------------------------------------------------------|
Eb|---------------------------------------------------------------------------|
Bb|--------10-\9---9----10----------------------------------------------------|
 F|--------10-\9---9----10----------------------------------------------------|
Bb|--------10-\9---9----10----------------------------------------------------|
                                                                              |
Pre Chorus: Guitar 3 (With effects)                                           |
 C|--17--/--19----19--\--17----------------17--/--19----19--\--17-------------|
 G|----------------------------19------------------------------------19-------|
Eb|---------------------------------------------------------------------------|
Bb|---------------------------------------------------------------------------|
 F|---------------------------------------------------------------------------|
Bb|---------------------------------------------------------------------------|

Pre Chorus: Guitar 3 (With effects)
 C|--17--/--19----19--\--17----------------17--/--19----19--\--17-------------|
 G|----------------------------19------------------------------------19-------|
Eb|---------------------------------------------------------------------------|
Bb|---------------------------------------------------------------------------|
 F|---------------------------------------------------------------------------|
Bb|---------------------------------------------------------------------------|

Pre Chorus: Guitar 2 (Distorted)
 C|---------------------------------------------------------------------------|
 G|---------------------------------------------------------------------------|
Eb|---------------------------------------------------------------------------|
Bb|--9-\-10-/-9-----9-\-10-/-9------------------------------------------------|
 F|--9-\-10-/-9-----9-\-10-/-9------------------------------------------------|
Bb|--9-\-10-/-9-----9-\-10-/-9------------------------------------------------|
                                                                              |
Pre Chorus: Guitar 3 (With effects)                                           |
 C|--17--/--19----19--\--17---------------------------------------------------|
 G|----------------------------19---------------------------------------------|
Eb|---------------------------------------------------------------------------|
Bb|---------------------------------------------------------------------------|
 F|---------------------------------------------------------------------------|
Bb|---------------------------------------------------------------------------|

Chorus: Guitar 2 (Distorted)
 C|---------------------------------------------------------------------------|
 G|---------------------------------------------------------------------------|
Eb|-----------7-----------------------------------7---------------------------|
Bb|--9--------0--------2--------5--------9--------0--------2--------5---------|
 F|--9--------0--------2--------3--------9--------0--------2--------3---------|
Bb|--9--------0--------2-----------------9--------0--------2------------------|
                                                                              |
Chorus: Guitar 3 (Distorted)                                                  |
 C|---------------------------------------------------------------------------|
 G|--14--b--r-14--b--r-14------15--12----14--b--r-14--b--r-14-------12--------|
Eb|---x--------x--------x-------x---x-----x--------x--------x--------x--------|
Bb|--11--b--r-11--b--r-11------12---9----11--b--r-11--b--r-11--------9--------|
 F|---------------------------------------------------------------------------|
Bb|---------------------------------------------------------------------------|

Chorus: Guitar 2 (Distorted)
 C|---------------------------------------------------------------------------|
 G|---------------------------------------------------------------------------|
Eb|-----------7-----------------------------------7---------------------------|
Bb|--9--------0--------2--------5--------9--------0--------2--------5---------|
 F|--9--------0--------2--------3--------9--------0--------2--------3---------|
Bb|--9--------0--------2-----------------9--------0--------2------------------|
                                                                              |
Chorus: Guitar 3 (Distorted)                                                  |
 C|---------------------------------------------------------------------------|
 G|--11--12---14--b--r-14------15--12----11--14---14--b--r-14-------12--------|
Eb|---x---x----x--------x-------x---x-----x---x----x--------x--------x--------|
Bb|---8---9---11--b--r-11------12---9-----8---9---11--b--r-11--------9--------|
 F|---------------------------------------------------------------------------|
Bb|---------------------------------------------------------------------------|

PLAY VERSE 1 AS VERSE 2

PLAY PRE CHORUS

Chorus: Guitar 2 (Distorted)
 C|---------------------------------------------------------------------------|
 G|---------------------------------------------------------------------------|
Eb|-----------7-----------------------------------7---------------------------|
Bb|--9--------0--------2--------5--------9--------0--------2--------5---------|
 F|--9--------0--------2--------3--------9--------0--------2--------3---------|
Bb|--9--------0--------2-----------------9--------0--------2------------------|
                                                                              |
Chorus: Guitar 3 (Distorted)                                                  |
 C|--14--b--r-14--b--r-14------15--12----14--b--r-14--b--r-14-------12--------|
 G|---x--------x--------x-------x---x-----x--------x--------x--------x--------|
Eb|--12--b--r-12--b--r-12------13--10----12--b--r-12--b--r-12-------10--------|
Bb|---------------------------------------------------------------------------|
 F|---------------------------------------------------------------------------|
Bb|---------------------------------------------------------------------------|

Chorus: Guitar 2 (Distorted)
 C|---------------------------------------------------------------------------|
 G|---------------------------------------------------------------------------|
Eb|-----------7-----------------------------------7---------------------------|
Bb|--9--------0--------2--------5--------9--------0--------2--------5---------|
 F|--9--------0--------2--------3--------9--------0--------2--------3---------|
Bb|--9--------0--------2-----------------9--------0--------2------------------|
                                                                              |
Chorus: Guitar 3 (Distorted)                                                  |
 C|--11--12---14--b--r-14------15--12----11--12---14--b--r-14-------12--------|
 G|---x---x----x--------x-------x---x-----x---x----x--------x--------x--------|
Eb|---9--10---12--b--r-12------13--10-----9--10---12--b--r-12-------10--------|
Bb|---------------------------------------------------------------------------|
 F|---------------------------------------------------------------------------|
Bb|---------------------------------------------------------------------------|

Bridge: Guitar 1 (Clean For Piano) PLAY 4 TIMES
 C|---------------------------------------------------------------------------|
 G|--------16----14h16h17-16-14-16-------------16----14h16h17-16-14-16--------|
Eb|--13-16----13-------------------16-15-13-16----13-------------------16-15--|
Bb|---------------------------------------------------------------------------|
 F|---------------------------------------------------------------------------|
Bb|---------------------------------------------------------------------------|

Bridge Cont: Guitar 2 (Distorted) PLAY 3 TIMES
 C|---------------------------------------------------------------------------|
 G|--9b(10)rb-(9)------9b(10)rb-(9)------9b(10)rb-(9)------9b(10)rb-(9)-------|
Eb|--x-----------------x-----------------x-----------------x------------------|
Bb|--6b( 7)rb-(6)--6---6b( 7)rb-(6)--6---6b( 7)rb-(6)--6---6b( 7)rb-(6)--6--2-|
 F|----------------6-----------------6-----------------6-----------------6--2-|
Bb|----------------6-----------------6-----------------6-----------------6--2-|
                                                                              |
Bridge: Guitar 3 (Distorted) PLAY 3 TIMES                                     |
 C|---------------------------------------------------------------------------|
 G|---------------------------------------------------------------------------|
Eb|----------------20----------------21----------------18----------------20-16|
Bb|---------------------------------------------------------------------------|
 F|---------------------------------------------------------------------------|
Bb|---------------------------------------------------------------------------|

Chorus 2: Guitar 2 (Distorted) PLAY 3 TIMES
 C|---------------------------------------------------------------------------|
 G|---------------------------------------------------------------------------|
Eb|---------------------------------------------------------------------------|
Bb|--2-2-2-2--5-5-5-5--0-0-0-0--7-7-7-7--5-5-5-5--4-4-4-4--9-9-9-9--0--0--0---|
 F|--2-2-2-2--5-5-5-5--0-0-0-0--7-7-7-7--5-5-5-5--4-4-4-4--9-9-9-9--0--0--0---|
Bb|--2-2-2-2--5-5-5-5--0-0-0-0--7-7-7-7--5-5-5-5--4-4-4-4--9-9-9-9--0--0--0---|
                                                                              |
Chorus 2: Guitar 3 (Distorted with Phase Shifter) PLAY 3 TIMES                |
 C|---------------------------------------------------------------------------|
 G|--19----20-19----19-15-17-19-14-17-15-19----20-19----19-15-17-19-19-17-15--|
Eb|-----16-------16-------------------------16-------15-----------------------|
Bb|---------------------------------------------------------------------------|
 F|---------------------------------------------------------------------------|
Bb|---------------------------------------------------------------------------|

Outro Chorus: Guitar 2 (Distorted)
 C|---------------------------------------------------------------------------|
 G|---------------------------------------------------------------------------|
Eb|---------------------------------------------------------------------------|
Bb|--10-\9---9-9-------------10-\9---9-9-------------10-\9---9-9--------------|
 F|--10-\9---9-9-------------10-\9---9-9-------------10-\9---9-9--------------|
Bb|--10-\9---9-9-------------10-\9---9-9-------------10-\9---9-9--------------|
                                                                              |
Outro Chorus: Guitar 3 (With effects)                                         |
 C|--17-/19-----19-\17-------17-/19-----19-\17-------17-/19-----19-\17--------|
 G|-------------------19----------------------19----------------------19------|
Eb|---------------------------------------------------------------------------|
Bb|---------------------------------------------------------------------------|
 F|---------------------------------------------------------------------------|
Bb|---------------------------------------------------------------------------|

Outro Chorus Cont: Guitar 2 (Distorted)
 C|---------------------------------------------------------------------------|
 G|---------------------------------------------------------------------------|
Eb|---------------------------------------------------------------------------|
Bb|--10-\9---9-9-/-10-\-9---9-/-10-\-9-----10-\9---9-9------9-/-10-\-9--7--10-|
 F|--10-\9---9-9-/-10-\-9---9-/-10-\-9-----10-\9---9-9------9-/-10-\-9--7--10-|
Bb|--10-\9---9-9-/-10-\-9---9-/-10-\-9-----10-\9---9-9------9-/-10-\-9--7--10-|
                                                                              |
Outro Chorus: Guitar 3 (With effects)                                         |
 C|--17-/19-----19-\17--------------------------------------------------------|
 G|-------------------19------------------------------------------------------|
Eb|---------------------------------------------------------------------------|
Bb|---------------------------------------------------------------------------|
 F|---------------------------------------------------------------------------|
Bb|---------------------------------------------------------------------------|

Finished!

http://www.brianheadwelch.net/
http://www.myspace.com/brianheadwelch

            
            
Suggest correction
Creating personal tab
Creating personal tab
You can edit any tab online and save it as your Personal.

You can edit, replace or remove any tab part or add personal notes – all changes will be seen only by you.

Personal tabs can be accessed anytime from any device, even offline.
Learn more »
Give kudos to tab author, rate the tab!
1 2 3 4 5
comments
print report bad tab
guest
You may want to rate the tab now too:
select rating
Wanna post a correction for this tab? Suggest correction