Oops, an error
Loading. Please wait.

Washed By Blood tab

6,373 views 1 this week
3 commentsread comments
1 2 3 4 5
1 last vote to show rating
add to favorites
×
Save as Personal and add changes to this tab that will be seen only by you. Learn more ›
×
You can save this tab as Personal to edit and correct it or add notes. All changes will be seen only by you. Learn more »
launch autoscroll
font size
0
reset
how to read this tab
guitar tuner
edit
Autoscroll
slow
fast
+/-
esc
set tempo
stop
Brian Head Welch
Washed By Blood
Tabbed by U B the band
Tuning Bb F Bb Eb G C

Legend
pm-palm mute

Intro A: Guitar 2 (Clean & palm muted) PLAY 4 TIMES
 C|--12----------------12-----10------12------10------12----13----12----10----|
 G|--------13----10-----------------------------------------------------------|
Eb|---------------------------------------------------------------------------|
Bb|---------------------------------------------------------------------------|
 F|---------------------------------------------------------------------------|
Bb|---------------------------------------------------------------------------|

Intro B: Guitar 1 (Distorted) PLAY INTRO B 2 TIMES
 C|---------------------------------------------------------------------------|
 G|---------------------------------------------------------------------------|
Eb|--2------------------5-----------------------------------------------------|
Bb|--2------------------5------------------5------------------2----------4----|
 F|--0------------------3------------------5------------------2----------2----|
Bb|----------------------------------------5------------------2---------------|
                                                                              |
Intro B: Guitar 2 (Distorted)                                                 |
 C|--8-------7----10----12--------10-------7--------5---------7--------3------|
 G|---------------------------------------------------------------------------|
Eb|---------------------------------------------------------------------------|
Bb|---------------------------------------------------------------------------|
 F|---------------------------------------------------------------------------|
Bb|---------------------------------------------------------------------------|

Intro B: Guitar 1 (Distorted)
 C|-----------------------------------------------------------------|---------|
 G|-----------------------------------------------------------------|---------|
Eb|--2------------4-----5-------------------------------------3-----|----5----|
Bb|--2------------4-----5------------------5------------------3-----|----5----|
 F|--0------------2-----3------------------5------------------1-----|----3----|
Bb|----------------------------------------5------------------------|---------|
                                                 DON’T PLAY 2ND TIME --- ^    |
Intro B: Guitar 2 (Distorted)                                                 |
 C|--8-------7----10----12---13---10---12--7--------5---------8---------------|
 G|---------------------------------------------------------------------------|
Eb|---------------------------------------------------------------------------|
Bb|---------------------------------------------------------------------------|
 F|---------------------------------------------------------------------------|
Bb|---------------------------------------------------------------------------|

Pre Verse 1: Guitar 2 (Clean & palm muted)
 C|--12----------------12-----10------12------10------12----13----12----------|
 G|--------13----10-----------------------------------------------------------|
Eb|---------------------------------------------------------------------------|
Bb|---------------------------------------------------------------------------|
 F|---------------------------------------------------------------------------|
Bb|---------------------------------------------------------------------------|

Verse 1: Guitar 1 (Distorted) PLAY 4 TIMES
 C|---------------------------------------------------------------------------|
 G|---------------------------------------------------------------------------|
Eb|---------------------------------------------------------------------------|
Bb|--2----2---2---3---2----2-----------2----2---2---3---2----2----------------|
 F|--0----0---0---1---0----0------2----0----0---0---1---0----0-----2---5------|
Bb|-------------------------------2--------------------------------2---5------|

Verse 1: Guitar 1 (Distorted) PLAY 1 TIME
 C|---------------------------------------------------------------------------|
 G|---------------------------------------------------------------------------|
Eb|---------------------------------------------------------------------------|
Bb|---------------------------------------------------------------------------|
 F|--3----3---3---5---3----3------2----3----3---3---5---3----3-----5---2------|
Bb|--3----3---3---5---3----3------2----3----3---3---5---3----3-----5---2------|

Verse 1: Guitar 1 (Distorted) PLAY 1 TIME
 C|---------------------------------------------------------------------------|
 G|---------------------------------------------------------------------------|
Eb|---------------------------------------------------------------------------|
Bb|--2----2---2---3---2----2-----------2----2---2---3---2---------------------|
 F|--0----0---0---1---0----0------2----0----0---0---1---0---------------------|
Bb|-------------------------------2------------------------------2---5--------|

Pre Chorus: Guitar 1 (Distorted)
 C|---------------------------------------------------------------------------|
 G|---------------------------------------------------------------------------|
Eb|---------------------------------------------------------------------------|
Bb|--5------------------3---------------2--5------------------3------------5--|
 F|--5------------------3---------------0--5------------------3------------3--|
Bb|--5------------------3------------------5------------------3---------------|

Chorus: Guitar 1 (Distorted)
 C|---------------------------------------------------------------------------|
 G|---------------------------------------------------------------------------|
Eb|--2------------------5-----------------------------------------------------|
Bb|--2------------------5------------------5------------------2----------4----|
 F|--0------------------3------------------5------------------2----------2----|
Bb|----------------------------------------5------------------2---------------|
                                                                              |
Chorus: Guitar 2 (Distorted)                                                  |
 C|--8-------7----10----12--------10-------7--------5---------7--------3------|
 G|---------------------------------------------------------------------------|
Eb|---------------------------------------------------------------------------|
Bb|---------------------------------------------------------------------------|
 F|---------------------------------------------------------------------------|
Bb|---------------------------------------------------------------------------|

Chorus: Guitar 1 (Distorted)
 C|---------------------------------------------------------------------------|
 G|---------------------------------------------------------------------------|
Eb|--2------------4-----5-------------------------------------3---------------|
Bb|--2------------4-----5------------------5------------------3---------------|
 F|--0------------2-----3------------------5------------------1---------------|
Bb|----------------------------------------5----------------------------------|
                                                                              |
Chorus: Guitar 2 (Distorted)                                                  |
 C|--8-------7----10----12---13---10---12--7--------5---------8---------------|
 G|---------------------------------------------------------------------------|
Eb|---------------------------------------------------------------------------|
Bb|---------------------------------------------------------------------------|
 F|---------------------------------------------------------------------------|
Bb|---------------------------------------------------------------------------|

Pre Verse 2: Guitar 2 (Clean & palm muted)
 C|--12----------------12-----10------12------10------12----13----12----------|
 G|--------13----10-----------------------------------------------------------|
Eb|---------------------------------------------------------------------------|
Bb|---------------------------------------------------------------------------|
 F|---------------------------------------------------------------------------|
Bb|---------------------------------------------------------------------------|

Verse 2: Guitar 1 (Distorted) PLAY 4 TIMES
 C|---------------------------------------------------------------------------|
 G|---------------------------------------------------------------------------|
Eb|---------------------------------------------------------------------------|
Bb|--2----2---2---3---2----2-----------2----2---2---3---2----2----------------|
 F|--0----0---0---1---0----0------2----0----0---0---1---0----0-----2---5------|
Bb|-------------------------------2--------------------------------2---5------|

Verse 2: Guitar 1 (Distorted) PLAY 1 TIME
 C|---------------------------------------------------------------------------|
 G|---------------------------------------------------------------------------|
Eb|---------------------------------------------------------------------------|
Bb|---------------------------------------------------------------------------|
 F|--3----3---3---5---3----3------2----3----3---3---5---3----3-----5---2------|
Bb|--3----3---3---5---3----3------2----3----3---3---5---3----3-----5---2------|

Verse 2: Guitar 1 (Distorted) PLAY 1 TIME
 C|---------------------------------------------------------------------------|
 G|---------------------------------------------------------------------------|
Eb|---------------------------------------------------------------------------|
Bb|--2----2---2---3---2----2-----------2----2---2---3---2---------------------|
 F|--0----0---0---1---0----0------2----0----0---0---1---0---------------------|
Bb|-------------------------------2-----------------------------2---5---------|

Pre Chorus: Guitar 1 (Distorted)
 C|---------------------------------------------------------------------------|
 G|---------------------------------------------------------------------------|
Eb|---------------------------------------------------------------------------|
Bb|--5------------------3---------------2--5------------------3------------2--|
 F|--5------------------3---------------0--5------------------3------------0--|
Bb|--5------------------3------------------5------------------3---------------|

Chorus: Guitar 1 (Distorted)
 C|---------------------------------------------------------------------------|
 G|---------------------------------------------------------------------------|
Eb|--2------------------5-----------------------------------------------------|
Bb|--2------------------5------------------5------------------2----------4----|
 F|--0------------------3------------------5------------------2----------2----|
Bb|----------------------------------------5------------------2---------------|
                                                                              |
Chorus: Guitar 2 (Distorted)                                                  |
 C|--8-------7----10----12--------10-------7--------5---------7--------3------|
 G|---------------------------------------------------------------------------|
Eb|---------------------------------------------------------------------------|
Bb|---------------------------------------------------------------------------|
 F|---------------------------------------------------------------------------|
Bb|---------------------------------------------------------------------------|

Chorus: Guitar 1 (Distorted)
 C|---------------------------------------------------------------------------|
 G|---------------------------------------------------------------------------|
Eb|--2------------4-----5-------------------------------------3---------------|
Bb|--2------------4-----5------------------5------------------3---------------|
 F|--0------------2-----3------------------5------------------1---------------|
Bb|----------------------------------------5----------------------------------|
                                                                              |
Chorus: Guitar 2 (Distorted)                                                  |
 C|--8-------7----10----12---13---10---12--7--------5---------8---------------|
 G|---------------------------------------------------------------------------|
Eb|---------------------------------------------------------------------------|
Bb|---------------------------------------------------------------------------|
 F|---------------------------------------------------------------------------|
Bb|---------------------------------------------------------------------------|

Bridge: Guitar 2 (Clean for keyboard/piano)
 C|---------------------------------------------------------------------------|
 G|----3-4-3----3-4-3----3-4-3----3-4-3----3-4-3----3-4-3----3-4-3----3-4-1---|
Eb|-----------0--------0--------0--------------------------1--------1---------|
Bb|--------------------------------------3--------3---------------------------|
 F|---------------------------------------------------------------------------|
Bb|---------------------------------------------------------------------------|

Bridge: Guitar 2 (Clean for keyboard/piano)
 C|-----------------------------------------------------------------------1---|
 G|----3-4-3----3-4-3----3-4-3----3-4-3----3-4-3----3-4-3----3-4-3----3-4-----|
Eb|--0--------0--------0--------0--------------------------1--------1---------|
Bb|--------------------------------------3--------3---------------------------|
 F|---------------------------------------------------------------------------|
Bb|---------------------------------------------------------------------------|

Bridge: Guitar 2 (Clean for keyboard/piano)
 C|---------------------------------------------------------------------------|
 G|----3-4-3----3-4-3----3-4-3----3-4-3----3-4-3----3-4-3----3-4-3----3-4-1---|
Eb|--0--------0--------0--------0--------------------------1--------1---------|
Bb|--------------------------------------3--------3---------------------------|
 F|---------------------------------------------------------------------------|
Bb|---------------------------------------------------------------------------|

Bridge: Guitar 2 (Clean for keyboard/piano)
 C|-----------------------------------------------------------------------1---|
 G|----3-4-3----3-4-3----3-4-3----3-4-3----3-4-3----3-4-3----3-4-3----3-4-----|
Eb|--0--------0--------0--------0--------------------------1--------1---------|
Bb|--------------------------------------3--------3---------------------------|
 F|---------------------------------------------------------------------------|
Bb|---------------------------------------------------------------------------|

Bridge: Guitar 2 (Clean for keyboard/piano)
 C|---------------------------------------------------------------------------|
 G|----3-4-3----3-4-3----3-4-3----3-4-3----3-4-3----3-4-3----3-4-3----3-4-3---|
Eb|--0--------0--------0--------0---------------------------------------------|
Bb|--------------------------------------3--------3--------3--------3---------|
 F|---------------------------------------------------------------------------|
Bb|---------------------------------------------------------------------------|

Bridge: Guitar 2 (Clean for keyboard/piano)
 C|---------------------------------------------------------------------------|
 G|----3-4-1----1-3-1----1-3-1----1-3------1-3------1-3------1-3---3-4-3-1----|
Eb|-----------------------------------3--------3--------3--------3---------3--|
Bb|--2--------2--------2--------2--------1--------1--------1------------------|
 F|---------------------------------------------------------------------------|
Bb|---------------------------------------------------------------------------|

Bridge: Guitar 2 (Clean for keyboard/piano)
 C|---------------------------------------------------------------------------|
 G|--------------------------------------------------------------1------------|
Eb|----2-3-2----2-3-2----2-3-2----2-3-2----2-3-2----2-3-2----2-3---3-2-3-0-2--|
Bb|-----------0--------0--------0--------0--------0--------0------------------|
 F|---------------------------------------------------------------------------|
Bb|---------------------------------------------------------------------------|

Bridge: Guitar 2 (Clean for keyboard/piano)
 C|---------------------------------------------------------------------------|
 G|----3-4-3----3-4-3----3-4-3----3-4-3----3-4-3----3-4-3----3-4-3----3-4-1---|
Eb|-----------0--------0--------0--------------------------1--------1---------|
Bb|--------------------------------------3--------3---------------------------|
 F|---------------------------------------------------------------------------|
Bb|---------------------------------------------------------------------------|

Bridge: Guitar 2 (Clean for keyboard/piano)
 C|---------------------------------------------------------------------------|
 G|----3-4-3----3-4-3----3-4-3----3-4-3----3-4-3----3-4-3----3-4-3----3-4-1---|
Eb|--0--------0--------0--------0--------------------------1--------1---------|
Bb|--------------------------------------3--------3---------------------------|
 F|---------------------------------------------------------------------------|
Bb|---------------------------------------------------------------------------|

Bridge: Guitar 1 (Distorted)
 C|---------------------------------------------------------------------------|
 G|---------------------------------------------------------------------------|
Eb|---------------------------------------------------------------------------|
Bb|---------------------------------------------------------------------------|
 F|--5----5---5----5---------------------3----3---3----3----------------------|
Bb|--5----5---5----5---------------------3----3---3----3----------------------|
                                                                              |
Bridge: Guitar 2 (Clean for keyboard/piano)                                   |
 C|---------------------------------------------------------------------------|
 G|----3-4-3----3-4-3----3-4-3----3-4-3----3-4-3----3-4-3----3-4-3----3-4-3---|
Eb|--0--------0--------0--------0---------------------------------------------|
Bb|--------------------------------------3--------3--------3--------3---------|
 F|---------------------------------------------------------------------------|
Bb|---------------------------------------------------------------------------|

Bridge: Guitar 1 (Distorted)
 C|---------------------------------------------------------------------------|
 G|---------------------------------------------------------------------------|
Eb|---------------------------------------------------------------------------|
Bb|---------------------------------------------------------------------------|
 F|--2----2---2----2---------------------1----1---1----1----------------------|
Bb|--2----2---2----2---------------------1----1---1----1----------------------|
                                                                              |
Bridge: Guitar 2 (Clean for keyboard/piano)                                   |
 C|---------------------------------------------------------------------------|
 G|----3-4-1----1-3-1----1-3-1----1-3------1-3------1-3------1-3---3-4-3-1----|
Eb|-----------------------------------3--------3--------3--------3---------3--|
Bb|--2--------2--------2--------2--------1--------1--------1------------------|
 F|---------------------------------------------------------------------------|
Bb|---------------------------------------------------------------------------|

Bridge: Guitar 1 (Distorted)
 C|---------------------------------------------------------------------------|
 G|---------------------------------------------------------------------------|
Eb|---------------------------------------------------------------------------|
Bb|---------------------------------------------------------------------------|
 F|--0----0---0----0-----0---------------0------------------------------------|
Bb|--0----0---0----0-----0---------------0------------------------------------|
                                                                              |
Bridge: Guitar 2 (Clean for keyboard/piano)                                   |
 C|---------------------------------------------------------------------------|
 G|---------------------------------------------------------------------------|
Eb|----2-3-2----2-3-2----2-3-2----2-3-2----2-3-2------------------------------|
Bb|-----------0--------0--------0--------0------------------------------------|
 F|---------------------------------------------------------------------------|
Bb|---------------------------------------------------------------------------|

Bridge Riff 2: Guitar 1 (Distorted) PLAY 5 TIMES
 C|---------------------------------------------------------------------------|
 G|---------------------------------------------------------------------------|
Eb|---------------------------------------------------------------------------|
Bb|--------5---8--------------------------------5---8-------------------------|
 F|--5--5--5---8----1--1----1--1---3---0--5--5--5---8----1--1----0--0---3---5-|
Bb|--5--5--5-0-8----1--1----1--1---3---0--5--5--5-0-8----1--1----0--0---3---5-|

Bridge Riff 3: Guitar 1 (Distorted) PLAY 4 TIMES
 C|---------------------------------------------------------------------------|
 G|---------------------------------------------------------------------------|
Eb|---------------------------------------------------------------------------|
Bb|---------------------------------------------------------------------------|
 F|--5----5----6----5--5--5--5--5--6--5----5----5----6----5--5--5--5--5--6--5-|
Bb|--5----5----6----5--5--5--5--5--6--5----5----5----6----5--5--5--5--5--6--5-|
                       pmpmpmpmpmpm                          pmpmpmpmpmpm

Bridge Riff 4: Guitar 1 (Distorted) PLAY 2 TIMES
 C|---------------------------------------------------------------------------|
 G|---------------------------------------------------------------------------|
Eb|---------------------------------------------------------------------------|
Bb|---------------------------------------------------------------------------|
 F|--5----5----6------5--5--5--5--6------5----5----6------5--5--5--5--6--5----|
Bb|--5----5----6------5--5--5--5--6------5----5----6------5--5--5--5--6--5----|

Bridge Riff 5: Guitar 1 (Distorted) PLAY 2 TIMES
 C|---------------------------------------------------------------------------|
 G|---------------------------------------------------------------------------|
Eb|---------------------------------------------------------------------------|
Bb|---------------------------------------------------------------------------|
 F|--5----5----6------5---5---5---6---5-----5----5----6------5---5---5---6--3-|
Bb|--5----5----6------5---5---5---6---5-----5----5----6------5---5---5---6--3-|

Bridge: Guitar 1 (Distorted)
 C|---------------------------------------------------------------------------|
 G|---------------------------------------------------------------------------|
Eb|---------------------------------------------------------------------------|
Bb|--5------------------------------------------------------------------------|
 F|--5------------------------------------------------------------------------|
Bb|--5------------------------------------------------------------------------|
                                                                              |
Bridge: Guitar 2 (Clean for keyboard/piano)                                   |
 C|---------------------------------------------------------------------------|
 G|----3-4-3----3-4-3----3-4-3----3-4-3----3-4-3----3-4-3----3-4-3----3-4-1---|
Eb|-----------0--------0--------0--------------------------1--------1---------|
Bb|--------------------------------------3--------3---------------------------|
 F|---------------------------------------------------------------------------|
Bb|---------------------------------------------------------------------------|

Bridge: Guitar 2 (Clean for keyboard/piano)
 C|-----------------------------------------------------------------------1---|
 G|----3-4-3----3-4-3----3-4-3----3-4-3----3-4-3----3-4-3----3-4-3----3-4-----|
Eb|--0--------0--------0--------0--------------------------1--------1---------|
Bb|--------------------------------------3--------3---------------------------|
 F|---------------------------------------------------------------------------|
Bb|---------------------------------------------------------------------------|

Chorus: Guitar 1 (Distorted)
 C|---------------------------------------------------------------------------|
 G|---------------------------------------------------------------------------|
Eb|--2------------------5-----------------------------------------------------|
Bb|--2------------------5------------------5------------------2----------4----|
 F|--0------------------3------------------5------------------2----------2----|
Bb|----------------------------------------5------------------2---------------|
                                                                              |
Chorus: Guitar 2 (Distorted)                                                  |
 C|--8-------7----10----12--------10-------7--------5---------7--------3------|
 G|---------------------------------------------------------------------------|
Eb|---------------------------------------------------------------------------|
Bb|---------------------------------------------------------------------------|
 F|---------------------------------------------------------------------------|
Bb|---------------------------------------------------------------------------|

Chorus: Guitar 1 (Distorted)
 C|---------------------------------------------------------------------------|
 G|---------------------------------------------------------------------------|
Eb|--2------------4-----5-------------------------------------3----------5----|
Bb|--2------------4-----5------------------5------------------3----------5----|
 F|--0------------2-----3------------------5------------------1----------3----|
Bb|----------------------------------------5----------------------------------|
                                                                              |
Chorus: Guitar 2 (Distorted)                                                  |
 C|--8-------7----10----12---13---10---12--7--------5---------8---------------|
 G|---------------------------------------------------------------------------|
Eb|---------------------------------------------------------------------------|
Bb|---------------------------------------------------------------------------|
 F|---------------------------------------------------------------------------|
Bb|---------------------------------------------------------------------------|

Outro: Guitar 1 (Distorted) PLAY 3 TIMES (Start fade out on 2nd time)
 C|---------------------------------------------------------------------------|
 G|---------------------------------------------------------------------------|
Eb|--2------------------5-----------------------------------------------------|
Bb|--2------------------5------------------5------------------2----------4----|
 F|--0------------------3------------------5------------------2----------2----|
Bb|----------------------------------------5------------------2---------------|
                                                                              |
Outro: Guitar 2 (Distorted)                                                   |
 C|--8-------7----10----12--------10-------7--------5---------7--------3------|
 G|---------------------------------------------------------------------------|
Eb|---------------------------------------------------------------------------|
Bb|---------------------------------------------------------------------------|
 F|---------------------------------------------------------------------------|
Bb|---------------------------------------------------------------------------|

Outro: Guitar 1 (Distorted)
 C|---------------------------------------------------------------------------|
 G|---------------------------------------------------------------------------|
Eb|--2------------4-----5-------------------------------------3----------5----|
Bb|--2------------4-----5------------------5------------------3----------5----|
 F|--0------------2-----3------------------5------------------1----------3----|
Bb|----------------------------------------5----------------------------------|
                                                                              |
Outro: Guitar 2 (Distorted)                                                   |
 C|--8-------7----10----12---13---10---12--7--------5---------8---------------|
 G|---------------------------------------------------------------------------|
Eb|---------------------------------------------------------------------------|
Bb|---------------------------------------------------------------------------|
 F|---------------------------------------------------------------------------|
Bb|---------------------------------------------------------------------------|

Finished!

            
            
Suggest correction
Creating personal tab
Creating personal tab
You can edit any tab online and save it as your Personal.

You can edit, replace or remove any tab part or add personal notes – all changes will be seen only by you.

Personal tabs can be accessed anytime from any device, even offline.
Learn more »
Give kudos to tab author, rate the tab!
1 2 3 4 5
comments
print report bad tab
3 comments total.
+1 reply
demonseed34 10 Jan 23, 2009 04:39 AM

Awsome man, flawless.

0 reply
Mainer 959 Feb 07, 2011 04:03 PM

with a few minor changes, this song doesn't sound bad in Drop-D either

0 reply
toateridax2010 84 Sep 11, 2016 07:57 PM

If you listen really closely, the stuff he's doing on the G# and C# string in the intro are actually trem picked.

guest
You may want to rate the tab now too:
select rating
Wanna post a correction for this tab? Suggest correction