Oops, an error
Loading. Please wait.

5 15 Acoustic chords

version 2
version 2

Whole song

2,989 views 9 this week
2 commentsread comments
1 2 3 4 5
1 last vote to show rating
add to favorites
×
Save as Personal and add changes to this tab that will be seen only by you. Learn more ›
×
You can save this tab as Personal to edit and correct it or add notes. All changes will be seen only by you. Learn more »
launch autoscroll
font size
0
reset
transpose
0
reset
simplify chords
display chords
guitar tuner
edit
Autoscroll
slow
fast
+/-
esc
set tempo
stop
Author
Difficulty
Strumming
There is no strumming pattern for this song yet. and get +5 IQ
Artist: Bridgit Mendler
Song: 5:15 (acoustic)
Video 1: https://www.youtube.com/watch?v=sCfmHK-lshs
Video 2: http://www.youtube.com/watch?v=BDuqHIpYvns
Transcription: SCA, kostya.levin.sca@gmail.com

Note: 
Watch the videos in the links above!
Chords are only relevant for that videos!

Note II:
He likes the 7th chords, so he often plays them,
also he mutes, does pull offs, does hammer ons,
and does slides (often from F to D#), and
you'll see all of that in the videos.

Tuning: standard
Capo: NO capo

Chords used:
name: E.A.D.G.B.e
Cm:   8.10.10.8.8.8  (often Cm7: 8.10.8.8.8.8)
D#:   x.6.8.8.8.x  
A#:   6.8.8.7.6.6    (often A#7: 6.8.6.7.6.6)
F:    x.8.10.10.10.x  (often F7: x.8.10.8.10.x)
G#:   4.6.6.5.4.4 
fp:   fingerpicking

[Intro]
Cm D# A# F x2

[Verse]
        Cm
I want a talk show
          D#
Guess that'll have to do
    A#
Up all night
  F
BBM-ing you
       Cm
Outta tylenol
      D#
Head still aches
     A#                        F
Got enough strength to flip a pancake
       Cm
Got the luggage packed
        D#
Waiting by the front
        A#
Quarter after five
        F
It's already one
Cm               D#
I'll say it one last time
 A#              F
Walking out the door 4:59

[Chorus]
G#           Cm
5:15 not a minute more
 A#                       
Ready for the knock on my door
G#            Cm
5:15 not a minute more
A#                
Ready for the waves on my shore
        G#               D#
And at 5:16 if you're not with me
 A#                   
You can catch me in the next city
 G#                   Cm
Never knew you meant that much to me
A#            
Until 5:15

[Break]
Cm D# A# F 

[Verse]
I think I've come done
Sick on puppy love
Wanna break out
Think I've had enough
The walls are caving in
And my think skin is feeling kinda thin
You find your way back in
Never thought it meant
When we came to june
I would feel this way about you
But I'll say it one last time
I'm walking out the door for 4:59

[Chorus]
5:15 not a minute more
Ready for the knock on my door
5:15 not a minute more
Ready for the waves on my shore
And at 5:16 if you're not with me
You can catch me in the next city
Never knew you meant that much to me
Until 5:15

[Solo] (look at the bottom of the page)
Na na na na
Na na na na
Na na na na
Na na na na

[Chorus]
5:15 not a minute more
Ready for the knock on my door
5:15 not a minute more
Ready for the waves on my shore
And at 5:16 if you're not with me
You can catch me in the next city
Never knew you meant that much to me
I won't wait another minute, no
When the waves are at my shore
Ready for the waves on my shore
And at 5:16 if you're not with me
You can catch me in the next city
Never knew you meant that much to me

[Ending]
      Cm D# A# F   Cm D# A#
Until fi-i-i-i-ve
   F       Cm D# 
Oh oh oh oh
      A#              F         
I'll be waiting for you
   Cm D# A#    F   
Oh oh oh oh
(fp*) Cm   D#
     At 5:15
A#     F       Cm 
Mmmmmm mmmmmmm
D#     A#      F (stop)
Ehhhhh Ehhhhhh


Note III:
Solo:
e|---------------------------------------|
B|---------------------------------------|
G|--5----5-/-7--8----10/-12--10--x-x-x-x-|
D|--x----x-/-x--x----x-/-x---x---x-x-x-x-|
A|--3----3-/-5--6----8-/-10--8---x-x-x-x-|
E|---------------------------------------| x2

e|----------------------------------------------------------------------|
B|----------------------------------------------------------------------|
G|-------------7/8bu--------------7/8bu---------------------------------|
D|--10p8--10------------10p8--10-----------8-8-8-10/12---8-8-8h10-7bu---|
A|----------------------------------------------------------------------|
E|----------------------------------------------------------------------|  x2

Fingerpicking (fp*):
  Cm          A#            D#          F
e|----------------------------------------------------------|
B|------------------8-8---------------------10-10-----------|
G|-----8-8----------------------7-7-------------------------|
D|----------------------------------------------------------|
A|-------------6-6------6---------------8-8-------8---------|
E|-8-8-----8----------------6-6-----6-----------------------| 

  Cm          A#            D#          F7
e|----------------------------------------------------------|
B|------------------8-8-----------------10------------------|
G|-----8-8----------------------7-7-----8-------------------|
D|--------------------------------------10------------------|
A|-------------6-6------6---------------8-------------------|
E|-8-8-----8----------------6-6-----6-----------------------|

Note IV:
If you have any corrections or improvements to the tab write
them on the comments section, or send me a message,
or e-mail, so we can together make this tab even better.  

SCA, kostya.levin.sca@gmail.com

            
            
Suggest correction
Creating personal tab
Creating personal tab
You can edit any tab online and save it as your Personal.

You can edit, replace or remove any tab part or add personal notes – all changes will be seen only by you.

Personal tabs can be accessed anytime from any device, even offline.
Learn more »
Give kudos to tab author, rate the tab!
1 2 3 4 5
comments
print report bad tab
2 comments total.
0 reply
AlanZuniga 25 Mar 02, 2017 09:10 PM

I think the solo sounds better like this:
e|----------------------------------------------------------------------|
B|----------------------------------------------------------------------|
G|-------------7/8bu--------------7/8bu---------------------------------|
D|--10p8--10------------10p8--10-----------8-8-8-10/12---8-8-8h10-7bu---|
A|----------------------------------------------------------------------|
E|----------------------------------------------------------------------|

+1 reply
satir3 5,884 Mar 03, 2017 11:28 AM

Yes, you're right. I'll correct it. Thanks.

guest
You may want to rate the tab now too:
select rating
Wanna post a correction for this tab? Suggest correction