Oops, an error
Loading. Please wait.

Road To Joy tab

version 2
version 2

Whole song

Interactive

4,263 views 12 this week
2 commentsread comments
1 2 3 4 5
x 6
add to favorites
×
Save as Personal and add changes to this tab that will be seen only by you. Learn more ›
×
You can save this tab as Personal to edit and correct it or add notes. All changes will be seen only by you. Learn more »
launch autoscroll
font size
0
reset
how to read this tab
guitar tuner
edit
Autoscroll
slow
fast
+/-
esc
set tempo
stop
Author
Difficulty
			     Road to Joy - Bright Eyes
-------------------------------------------------------------------------------
Tabbed by: Ipothas
Email: Joshx3g@yahoo.com

Tuning: Standard

There is no correct guitar tab for this song anywhere on Ultimate-Guitar, so I 
decided to post one.
I'm not tabbing repeats, or anthing like that, just parts of the song.

				-INTRO- 
Be sure to pluck the 3rd Fret on the D String rather loudly, for that folky 
buzz.

If this tab gets rejected like all my others, I'm just going to laugh.

e|---------------------------------------------------------------------------|
B|----2---2------2---2-------------------------------------------------------|
G|---------------------------------------------------------------------------|
D|------3----------3---------------------------------------------------------|
A|-4---------4-----------4---------------------------------------------------|
E|---------------------------------------------------------------------------|

				-INTRO-(2nd)

e|---------------------------------------------------------------------------|
B|---------------------------------------------------------------------------|
G|---------------------------------------------------------------------------|
D|-----1---3---4-4/6--4-4-3--------1--3--4--3--1-1---------------------------|
A|-4----------------------------4--------------------------------------------|
E|---------------------------------------------------------------------------|

e|---------------------------------------------------------------------------|
B|---------------------------------------------------------------------------|
G|---------------------------------------------------------------------------|
D|-----1---4---4-4/6--4-4-3--------1--3--4--3--1-----------------------------|
A|-4---------------------------4-------------------4~~-----------------------|
E|---------------------------------------------------------------------------|



e|---------------------------------------------------------------------------|
B|---------------------------------------------------------------------------|
G|---------------------------------------------------------------------------|
D|333--------------555--666--888--101010--11-11-11--13-13-13--15-15-15-------|
A|333--------------555--666--888--101010--11-11-11--13-13-13--15-15-15-------|
E|111--------------333--444--666--8-8-8---9--9--9---11-11-11--13-13-13-------|
  "I read the body count..." (Strum chords 3 times quickly, 3rd strum ring)



| /  slide up
| \  slide down
| h  hammer-on
| p  pull-off
| ~  vibrato
| +  harmonic
| x  Mute note
===============================================================================

            
            
Suggest correction
Creating personal tab
Creating personal tab
You can edit any tab online and save it as your Personal.

You can edit, replace or remove any tab part or add personal notes – all changes will be seen only by you.

Personal tabs can be accessed anytime from any device, even offline.
Learn more »
comments
print report bad tab
2 comments total.
0 reply
ipothas 31 Jun 29, 2007 02:32 PM

Sorry, on the second part of the intro, your supposed to go from 3 to 4 4/6. I didn't mean to leave out the 3.

0 reply
Nero Galon 365 Sep 28, 2016 11:40 AM

There are plenty of correct tabs out there for this song. The only thing you've done different is tab it without the need for a capo and used power chords...

guest
You may want to rate the tab now too:
select rating
Wanna post a correction for this tab? Suggest correction