Oops, an error
Loading. Please wait.

Count Your Blessings album tab

version 2
version 2

Album

8,096 views 21 this week
no commentswrite comment
1 2 3 4 5
x 6
add to favorites
×
Save as Personal and add changes to this tab that will be seen only by you. Learn more ›
×
You can save this tab as Personal to edit and correct it or add notes. All changes will be seen only by you. Learn more »
launch autoscroll
font size
0
reset
how to read this tab
guitar tuner
edit
Autoscroll
slow
fast
+/-
esc
set tempo
stop
                 

               Bring Me The Horizon - Count Your Blessings




NOTE: NONE OF THESE TABS BELONG TO ME. THEY BELONG TO RESPECTIVE ULTIMATE GUITAR USERS AND CREATORS.
I ONLY COMPILED THIS TO MAKE IT EASIER FOR VIEWERS WANTING TO LEARN THE ENTIRE ALBUM.




Tracks:
1. Pray For Plagues TABBED BY = confinedforever 1,770
2. Tell Slater Not To Wash His Dick TABBED BY = confinedforever 1,770
3. For Stevie Wonders Eyes Only (Braile) TABBED BY = Th3 Gu1tar1st 123
4. A Lot Like Vegas TABBED BY = nickETCETERA
5. Black And Blue TABBED BY = chrischarboner 3,079
6. Slow Dance TABBED BY = kiefermatot 1,399
7. Liquor & Love Lost TABBED BY = James Matthews
8. (I Used To Make Out With) Medusa TABBED BY = Th3 Gu1tar1st 123
9. Fifteen Fathoms, Counting TABBED BY = I_can_kill_me 110
10. Off The Heezay TABBED BY = confinedforever 1,770





1. PRAY FOR PLAGUE:

    0:00 - 0:03
|-----------------------------------------------------------|
|-----------------------------------------------------------|
|--------------------------------------------------8h11p8---|
|--1-4-3-1------------------------------7h10p7--------------|
|--1-4-3-1-----6--9----5h8p5--4h7p4-------------------------|
|--1-4-3-1--0-------0---------------0-0--------0-0----------|
   * * *    *                       * *        * *

  0:04 - 0:05
|--------------------------------------|
|--------------------------------------|
|--7---6-6-9-----------------8-10-11---|
|---------------------7-9-10-----------|
|--------------7-9-10------------------|
|----0---------------------------------|
     *

   0:06 - 0:13
|-----------------------------------------------------------|
|-----------------------------------------------------------|
|-----------------------------------------------------------| x2
|--------------------3----------------------7-----6---------|
|----5h8-4-----5-----------6------5h8-4-----------------8---|
|--0-------0-0---0-0---0-0----0-0-------0-0---0-0---0-0-----|
   *       * *   * *   * *    * *       * *   * *   * *

 0:14 - 0:15
|------------|
|------------|
|---[12]~ ---|
|------------|
|------------|
|------------|

  0:16 - 0:49
|-----------------------------------------------------------|----------- \
|-----------------------------------------------------------| ---------- \
|-----------------------------------------------------------|  --------- \
|--------------------3----------------------7-----6---------|    \ both- \ x2
|----5h8-4-----5-----------6------5h8-4-----------------8---|    ------- \
|--0-------0-0---0-0---0-0----0-0-------0-0---0-0---0-0-----|     ------ \
   *       * *   * *   * *    * *       * *   * *   * *             \
                                                                     \
|---------------------------------------------------------------------|
|---------------------------------------------------------------------|
|------7h10-6------7-----10-----8------7h10-6-----6h9---7h10---8h11---|
|---------------------------------------------------------------------|
|---------------------------------------------------------------------|
|--0-0---------0-0---0-0----0-0----0-0--------0-0-----0------0--------|
   * *         * *   * *    * *    * *        * *     *      *

   0:50 - 0:53
|---------------------------------------------------|
|---------------------------------------------------|
|----------------------------[12]bend--[14]bend-----|
|---------------------------------------------------|
|--5----7----8----4---------------------------------|
|----00---00---00---00-00-00------00-00-----00-00---|
     **   **   **   ** ** **      ** **     ** **

   0:54 - 0:57
|-----------------------------------------------------|
|-----------------------------------------------------|
|----------------------------[14]bend--[12]bend-------|
|-----------------------------------------------------|
|--5----7----8----4-------------------------5-4-------|
|----00---00---00---00-00-00------00-00---------4-3---|
     **   **   **   ** ** **      ** **

  0:58 - 1:00
|--------------|
|--------------|
|--------------|
|--1-4-5-1-1---|
|--1-4-5-1-1---|
|--1-4-5-1-1---|

   1:01
|-------------|
|-------------|
|-------------|
|--0-0--0-0---|
|--0-0--0-0---|
|--0-0--0-0---|
   * *  * *

  1:02 - 1:08
|-------------------------------------------------|
|-------------------------------------------------|
|-------------------------------------------------|
|--0-0--0-0---0-00-00-00---0000000--3-1-0-4-3-1---|
|--0-0--0-0---0-00-00-00---0000000--3-1-0-4-3-1---|
|--0-0--0-0---0-00-00-00---0000000--3-1-0-4-3-1---|
   * *  * *   * ** ** **   *******

  1:09 - 1:17
|--------------------------------------------------------------------|
|--------------------------------------------------------------------|
|---------------------------------------------------------[12]bend---|
|--0-0--0-0---0-00-00-00---0000000--3-1-0-4-3-1--0-0--0-0------------|
|--0-0--0-0---0-00-00-00---0000000--3-1-0-4-3-1--0-0--0-0------------|
|--0-0--0-0---0-00-00-00---0000000--3-1-0-4-3-1--0-0--0-0------------|
   * *  * *   * ** ** **   *******               * *  * *

  1:18 - 1:24
|-------------------------------------------------|
|-------------------------------------------------|
|-------------------------------------------------|
|--0-0--0-0---0-00-00-00---0000000--3-1-0-4-3-1---|
|--0-0--0-0---0-00-00-00---0000000--3-1-0-4-3-1---|
|--0-0--0-0---0-00-00-00---0000000--3-1-0-4-3-1---|
   * *  * *   * ** ** **   *******

  1:25 - 1:29
|------------------------------------|
|------------------------------------|
|------------------------------------|
|--0-0--0-0---0-00-00-00---0000000---|
|--0-0--0-0---0-00-00-00---0000000---|
|--0-0--0-0---0-00-00-00---0000000---|
   * *  * *   * ** ** **   *******

  1:31 - 1:56
|---------------------------------------------------------------|
|---------------------------------------------------------------|
|---------------------------------------------------------------| x6
|----------4---------3-------------------12----------11---------|
|------6-5-------5-4-------3h5-----10-12-------9--11------------|
|--0-0-------0-0-------0-0-----0-0---------0-0----------10h12---|
   * *       * *       * *     * *         * *

 1:57 - 1:58
|--------|
|--------|
|--------|
|--0-0---|
|--0-0---|
|--0-0---|
   * *

  1:59 - 2:07
|---------------------------------------------------------------|
|---------------------------------------------------------------|
|---------------------------------------------------------------| x2
|----------4---------3-------------------12----------11---------|
|------6-5-------5-4-------3h5-----10-12-------9--11------------|
|--0-0-------0-0-------0-0-----0-0---------0-0----------10h12---|
   * *       * *       * *     * *         * *

  2:08 - 2:11
|--------------------------------13-16---------------------------15-17-18--|
|--------------------------12-15------------------------15-17-18-----------|
|--------------------11-14---------------------14-16-17--------------------|
|--------------10-13------------------13-15-16-----------------------------|
|--------------------------------------------------------------------------|
|-00-00-00-00--------------------------------------------------------------|
  ** ** ** **

|--17p13p10-17p13p10-9p12p16-9p12p16-------------|
|------------------------------------------------|
|------------------------------------------------|
|------------------------------------------------|
|------------------------------------------------|
|------------------------------------------------|

  2:12 - 2:24 (Solo)
|--------------------17----------------------|
|-----------------18----18-------------------|
|--------------19----------19----------------|
|-----------19----------------19-------------|x2
|-----17-20----------------------20-17-------|
|--19----------------------------------19----|

|--------------------16----------------------| 
|-----------------17----17-------------------|
|--------------18----------18----------------|
|-----------18----------------18-------------|x2
|-----16-19----------------------19-16-------|
|--18----------------------------------18----|

  Solo Rhythm
|-------------------------------------------------|
|-------------------------------------------------|
|-------------------------------------------------|
|--0-------------6----------0-------------6--6\---|
|--0-------------6----------0-------------6--6\---|
|--0-------------6---/18----0-------------6--6\---|


  2:25 - 2:32
|---------------------------------------------------|
|---------------------------------------------------|
|---------------------------------------------------|
|--------------------------------------10-9---------|
|-----------"12(x6)-"11(x12)-----11------------11---|
|--"12(x32)-------------------12----12------12------|
                              *     *       *

  2:33 - 2:40
|-------------------------------------------------------------------|
|-------------------------------------------------------------------|
|----------7---------------------[7]---------7---------7-6--10--6---|
|--0-3-2-0-7-0-3-2-0-8-7-0-3-2-0-----0-3-2-0-7-0-3-2-0-7-6--10--6---|
|--0-3-2-0---0-3-2-0-8-7-0-3-2-0-----0-3-2-0---0-3-2-0--------------|
|--0-3-2-0---0-3-2-0-8-7-0-3-2-0-----0-3-2-0---0-3-2-0-----0---0----|
   * * * *   * * * *     *     *     * * * *   * * * *     *   *


  2:41 - 2:45
|--------------------------------------------------------|
|--------------------------------------------------------|
|----------7---------------------[7]---------7-----------|
|--0-3-2-0-7-0-3-2-0-8-7-0-3-2-0-----0-3-2-0-7-0-0-0-0---|
|--0-3-2-0---0-3-2-0-8-7-0-3-2-0-----0-3-2-0---0-0-0-0---|
|--0-3-2-0---0-3-2-0-8-7-0-3-2-0-----0-3-2-0---0-0-0-0---|
   * * * *   * * * *     *     *     * * * *   * * * *

  2:46 - 2:48
|-------------------------------------------------------------------------|
|--------------------10h13p10h13p10h13--9h12p9h12p9h12--------------------|
|--11h14p11h14p11h14-----------------------------------10h13p10h13p10h13--|
|-------------------------------------------------------------------------|
|-------------------------------------------------------------------------|
|-------------------------------------------------------------------------|


   2:49 - 2:55
|---------------------------------------------------------|
|---------------------------------------------------------|
|--------------------------------------------------[12]---|
|--0-3-2-0---0-3-2-0-8-0-0---0-3-2-0---0-3-2-0-8-0--------|
|--0-3-2-0---0-3-2-0-8-0-0---0-3-2-0---0-3-2-0-8-0--------|
|--0-3-2-0---0-3-2-0-8-0-0---0-3-2-0---0-3-2-0-8-0--------|
   * * * *   * * * *   * *   * * * *   * * * *   *

   2:56 - 3:01
|------------------------------------------------|
|------------------------------------------------|
|------------------------------------------------|
|--0-3-2-0---0-3-2-0-8-0-0---0-3-2-0---0-3-2-0---|
|--0-3-2-0---0-3-2-0-8-0-0---0-3-2-0---0-3-2-0---|
|--0-3-2-0---0-3-2-0-8-0-0---0-3-2-0---0-3-2-0---|
   * * * *   * * * *   * *   * * * *   * * * *

  3:02 - 3:03
|---------------------------------------------------|
|---------------------------------------------------|
|------------------------------------------8h11p8---|
|------------------------------7h107p7--------------|
|-----6--9----5h8p5--4h7p4--------------------------|
|--0-------0---------------0-0---------0-0----------|
   *       *               * *         * *

   3:04 - 3:06
|-----------------------------------------|
|-----------------------------------------|
|--[7]--[6]-6-9-----------------8-10-11---|
|-----------------------7-9-10------------|
|---------------7-9-10--------------------|
|-----0-----------------------------------|
      *

   3:07 - 3:14
|-----------------------------------------------------------|
|-----------------------------------------------------------|
|-----------------------------------------------------------| x2
|--------------------3----------------------7-----6---------|
|----5h8-4-----5-----------6------5h8-4-----------------8---|
|--0-------0-0---0-0---0-0----0-0-------0-0---0-0---0-0-----|
   *       * *   * *   * *    * *       * *   * *   * *

   3:15 - 3:23
|----------------------------------------------------------------|
|----------------------------------------------------------------|
|----------------------------------------------------------------| x2
|----------------------3-----------------------------------------|
|------5h8-4-----5-----------6------5h8-4-----6h9---7h10---5h8---|
|--0-0-------0-0---0-0---0-0----0-0-------0-0-----0------0-------|
   * *       * *   * *   * *    * *       * *     *      *

   3:24 - 3:33
|---------------------------------------|
|---------------------------------------|
|---------------------------------------|
|--0-----------0------------------------|
|--0-----------0------------------------|
|--0-----------0----------3-1-0-4-3-1---|


  3:34 - 3:37
|--------------------------------------------------------|
|--------------------------------------------------------|
|--------------------------------------------------------|
|--0---------------------------------------3-1-0-4-3-1---|
|--0-----5h8---4-----5h8---11-----5h8------3-1-0-4-3-1---|
|--0-0-0-----0---0-0-----0----0-0-----0-0--3-1-0-4-3-1---|
     * *     *   * *     *    * *     * *

   3:38 - 3:57
|--------------------------------------------------------------------|
|--------------------------------------------------------------------|
|-----------------------------------------8-7-5----------------------|
|--0--------------------------------------------8-7-5----------------|
|--0-----5h8---4-----5h8---11-----5h8-----------------8-7-5--6-5-3---|
|--0-0-0-----0---0-0-----0----0-0-----0-0----------------------------|
     * *     *   * *     *    * *     * *                           /
                                                                   /
|---------------------------------------------------------------------- \        /
|---------------------------------------------------------------------- \       /
|--------------------------------------------------------|      / both- \ x2
|--0---------------------------------------3-1-0-4-3-1----------------- \     /
|--0-----5h8---4-----5h8---11-----5h8------3-1-0-4-3-1----------------- \    /
|--0-0-0-----0---0-0-----0----0-0-----0-0--3-1-0-4-3-1---| ------------ \
     * *     *   * *     *    * *     * *

  4:00 - 4:14
|---------------------------------------------------------|
|---------------------------------------------------------|
|--------------------------------------------------[12]---| x2
|--0-3-2-0---0-3-2-0-8-0-0---0-3-2-0---0-3-2-0-8-0--------|
|--0-3-2-0---0-3-2-0-8-0-0---0-3-2-0---0-3-2-0-8-0--------|
|--0-3-2-0---0-3-2-0-8-0-0---0-3-2-0---0-3-2-0-8-0--------|
   * * * *   * * * *   * *   * * * *   * * * *   *

  4:15 - 4:16
|------------|
|------------|
|------------|
|--0-3-2-0---|
|--0-3-2-0---|
|--0-3-2-0---|
   * * * *



















2. TELL SLATER NOT TO WASH HIS DICK:

  Solo Rhythm 
|--------------------------------------------------|
|--------------------------------------------------|
|--------------------------------------------------|
|------------------8---7---------------------------|
|-8p5----4----4----------8p5----4----4--------5h8--|
|-----00---00---00---0-------00---00---00-5h8------|
      **   **   **   *       **   **   **

|-----------------------------------------------|
|-----------------------------------------------|
|-----------------------------------------------|
|------------------8-7-5------------------------|
|-5------5h8-4-----------8p5---------------5h8--|
|---0000-------00------------00-5h8-00-5h8------|
    ****       **            **     **

  Verse 1
|-------------------------------------------------------|
|-------------------------------------------------------|
|-------------------------------------------------------| x4
|------------------8-7-5-----------------------5h7------|
|-5------5h8-4-----------8p5---------------5h8-----5h8--|
|---0000-------00------------00-5h8-00-5h8--------------|
    ****       **            **     **  

  Verse 2
|--------------------------------------------------------------------|
|--------------------------------------------------------------------|
|--------------------------------------------------------------------|
|--------------------------------------8-----------------------------|
|-5--------8---7---------10---8------------12------------------------|
|---0-0000---0---0-7777-----7---7-8888---8----8-11111111-(as in 11)--|
    * ****   *   * ****     *   * ****   *    * ******** 

|---------------------------------------------------------------------|
|---------------------------------------------------------------------|
|---------------------------------------------------------------------|
|--------------------------------------8----121212121010101088887777--|
|-5--------8---7---------10---8---------------------------------------|
|---0-0000---0---0-7777-----7---7-8888---8----------------------------|
    * ****   *   * ****     *   * ****   *


Verse 1 x2
verse 2 x2


 All the muted notes are 0 they dont change when the bass line changes from
  0 - 8 - 5 as it sounds, the guitars stay at 0
 Verse 3
|----------------------------------------------------------|
|----------------------------------------------------------|
|----------------------------------------------------------| 
|------------7------------------8--------------------------|
|---5---7------(x2)----5---7------(x2)----5---7---8--(x4)--|
|-0---0---0----------0---0---0----------0---0---0----------|
  *   *   *          *   *   *          *   *   *        
                                                  (these 2 sections x2)
                                                         
|------------------------------------------------------------------------|
|------------------------------------------------------------------------|
|------------------------------------------------------------------------| 
|------------7------------------8----------------------------------------|
|---5---7------(x2)----5---7------(x2)------8p5---5-7-8------4-6-7-5-7-8-|
|-0---0---0----------0---0---0---------0000-----0-------0000-------------|
  *   *   *          *   *   *         ****     *       **** 


  Second bit of Verse 3 (x2)
|--------------------------------------------------------------------------|
|--------------------------------------------------------------------------|
|--------------------------------------------------------------------------|
|-12---10---8---------8---7------------------------------------------------|
|---------------(x2)----------10----(x2)------8p5---5-7-8------4-6-7-5-7-8-|
|----0---0----0---------0---0----0-------0000-----0-------0000-------------|
     *   *    *        *   *    *        ****     *       ****

|----------17-------------------------|
|-------16----16------------------18--|
|----17----------17-----19/21-19------| 
|-19----------------19----------------|
|-------------------------------------|
|-------------------------------------| 

|-------------------------------------|
|-------------------------------------|
|-------------------------------------| 
|-8-----------------5-------------10--|
|-8-----------------5-------------10--|
|-8-----------------5-------------10--|  

 Pre-Breakdown
|-----------------------------------------------------|
|-----------------------------------------------------|
|-----------------------------------------------------|
|-0-----------0-3-1-0-4-0-1-3-0-0-----------54444111--|
|-0-----------0-3-1-0-4-0-1-3-0-0-----------54444111--|
|-0--00000000-0-3-1-0-4-0-1-3-0-0--00000000-54444111--|
     ******** * * * *   *     * *  ********   

|-----------------------------------------------------------|
|-----------------------------------------------------------|
|-----------------------------------------------------------|
|-0-0-----------0-3-1-0-4-0-1-3-0-0-----------011112-----0--|
|-0-0-----------0-3-1-0-4-0-1-3-0-0-----------011112-----0--|
|-0-0--00000000-0-3-1-0-4-0-1-3-0-0--00000000-011112-[3]-0--|
  *    ******** * * * *   *     * *  ********            *

         ----------|MOVE|----------

  Breakdown
|-------------------------------------------------------|
|-------------------------------------------------------|
|-------------------------------------------------------|
|-0-0-----------0-3-1-0-4-0-1-3-0-0-----------54444111--|
|-0-0-----------0-3-1-0-4-0-1-3-0-0-----------54444111--|
|-0-0--00000000-0-3-1-0-4-0-1-3-0-0--00000000-54444111--|
  * *  ******** * * * *   *     * *  ********   

|---------------------------------------------------------|
|---------------------------------------------------------|
|---------------------------------------------------------|
|-0-0-----------0-3-1-0-4-0-1-3-0-0-----------011112------|
|-0-0-----------0-3-1-0-4-0-1-3-0-0-----------011112------|
|-0-0--00000000-0-3-1-0-4-0-1-3-0-0--00000000-011112-[3]--|
  * *  ******** * * * *   *     * *  ********  

|-------------------------------------------------------|
|-------------------------------------------------------|
|-------------------------------------------------------|
|-0-0-----------0-3-1-0-4-0-1-3-0-0-----------54444111--|
|-0-0-----------0-3-1-0-4-0-1-3-0-0-----------54444111--|
|-0-0--00000000-0-3-1-0-4-0-1-3-0-0--00000000-54444111--|
  * *  ******** * * * *   *     * *  ********

  Tempo slows down here
|--------------------------------|
|--------------------------------|
|--------------------------------|
|-0-0-----------0-3-1-0-4-0-1-3--|
|-0-0-----------0-3-1-0-4-0-1-3--|
|-0-0--00000000-0-3-1-0-4-0-1-3--|
  * *  ******** * * * *   * * *

|-------------------------------------------------------|
|-------------------------------------------------------|
|-------------------------------------------------------|
|-0-0-----------0-3-1-0-4-0-1-3-0-0-----------54444111--|
|-0-0-----------0-3-1-0-4-0-1-3-0-0-----------54444111--|
|-0-0--00000000-0-3-1-0-4-0-1-3-0-0--00000000-54444111--|
  * *  ******** * * * *   *     * *  ********   

|-------------------------------------------------------------|
|-------------------------------------------------------------|
|-------------------------------------------------------------|
|-0-0-----------0-3-1-0-4-0-1-3-0-0-----------011112-----0-0--|
|-0-0-----------0-3-1-0-4-0-1-3-0-0-----------011112-----0-0--|
|-0-0--00000000-0-3-1-0-4-0-1-3-0-0--00000000-011112-[3]-0-0--|
  * *  ******** * * * *   *     * *  ********            * *   

 Verse 4

 (PICKED VERY FAST)
|--------------------------1212121212121212121213131313131313131313--|
|-151515151515151515151515-------------------------------------------|
|--------------------------------------------------------------------|
|--------------------------------------------------------------------|
|--------------------------------------------------------------------|
|--------------------------------------------------------------------| 

|--------------------------1818181818181818181817171717171717171717--|
|-111111111111111111111111-------------------------------------------|
|--------------------------------------------------------------------|
|--------------------------------------------------------------------|
|--------------------------------------------------------------------|
|--------------------------------------------------------------------|

|--------------------------1212121212121212121213131313131313131313--|
|-151515151515151515151515-------------------------------------------|
|--------------------------------------------------------------------|
|--------------------------------------------------------------------|
|--------------------------------------------------------------------|
|--------------------------------------------------------------------|

|--------------------------1818181818181818181817171717171717171717--|
|-111111111111111111111111-------------------------------------------|
|--------------------------------------------------------------------|
|--------------------------------------------------------------------|
|--------------------------------------------------------------------|
|--------------------------------------------------------------------|

|--------------------------1212121212121212121213131313131313131313--|
|-151515151515151515151515-------------------------------------------|
|--------------------------------------------------------------------|
|--------------------------------------------------------------------|
|--------------------------------------------------------------------|
|--------------------------------------------------------------------|

  Rhythm backing for the top bit is
|--------------|
|--------------|
|--------------| 
|-8----5----7--|
|-8----5----5--|
|-8----5-------|



















3. FOR STEVIE WONDERS EYES ONLY (BRAILE):

--------------------------------------------------|
--------------------------------------------------|
--------------------------------------------------|
--------------------------------------------------|
-------------------------------8-8-8-8--7-7-7-7---|
-7-7--8-8--4-4--5-5--7-7--8-8---------------------|
 * *  * *  * *  * *  * *  * *  * * * *  * * * *

-----------------|--------------------------------|
-----------------|--------------------------------|
-----------------|x2]-----------------------------|
-----------------|------------5-7-8---------------|
-5-5--8p5--7p4---|------5-7-8---------------------|
-----------------|--------------------------------|
 * *

--------------------------------------------------|
--------------------------------------------------|
---------------------------------------7-8-10-----|
--------------------------5-7-8-7-8-10------------|
-5-5--8p5--7p4------5-7-8-------------------------|
----------------0-0-------------------------------|
 * *            * *

-----------------|--------------------------------|
-----------------|--------------------------------|
-----------------|x2]-----------------------------|
-----------------|------------5-7-8---------------|
-5-5--8p5--7p4---|------5-7-8---------------------|
-----------------|--------------------------------|
 * *

--------------------------------------------------|
--------------------------------------------------|
---------------------------------------7-8-10-----|
--------------------------5-7-8-7-8-10------------|
-5-5--8p5--7p4------5-7-8-------------------------|
----------------0-0-------------------------------|
 * *            * *


--------------------------------------------------|
--------------------------------------------------|
--------------------------------------------------|
--------------------------------------------------|
-5-------4-5---8---7----------4-------------------|
---0-0-0-----0---0---0-0-0--0---0-0-0--0----------|
   * * *     *   *   * * *  *   * * *  *


--------------------------------------------------|
--------------------------------------------------|
--------------------------------------------------|
--------------------------------------------------|
-------------------------------8-8-8-8--7-7-7-7---|
-7-7--8-8--4-4--5-5--7-7--8-8---------------------|
 * *  * *  * *  * *  * *  * *  * * * *  * * * *



--------------------------------------------------|
--------------------------------------------------|
--------------------------------------------------|
--------------------------------------------------|
-5-------4-5---8---7----------4-------------------|
---0-0-0-----0---0---0-0-0--0---0-0-0--0----------|
   * * *     *   *   * * *  *   * * *  *


--------------------------------------------------|
--------------------------------------------------|
--------------------------------------------------|
--------------------------------------------------|
-------------------------------8-8-8-8--7-7-7-7---|
-7-7--8-8--4-4--5-5--7-7--8-8---------------------|
 * *  * *  * *  * *  * *  * *  * * * *  * * * *


-------------------------------------------------------------|
-------------------------------------------------------------|
--------------------------------------7----------------------|
-5---0------------------7---8-7------------------------------|
---8----------------------8-----5-5-8------------------------|
--------0--0-0-0--0-0-0-----------------0-0--0-0-0--0-0-0----|
        *  * * *  * * *                 * *  * * *  * * *

-------------------------------------------------|
-------------------------------------------------|
-------------7-8-7-------------------------------|
-------5-7-8-------8-7-5-------------------------|
-5-7-8-------------------8-5---------------------|
-----------------------------0--0-0-0--0-0-0-----|
                             *  * * *  * * *

--------------------------------------------------|
--------------------------------------------------|
---------------7----------------------------------|
-7---8-7-----------------------------7-8-7-<5*>---|
---8-----5-5-8---------------------5--------------|
-----------------0-0--0-0-0--0-0-0----------------|
                 * *  * * *  * * *


-------------------------------------------------------------|
-------------------------------------------------------------|
--------------------------------------7----------------------|
-5---0------------------7---8-7------------------------------|
---8----------------------8-----5-5-8------------------------|
--------0--0-0-0--0-0-0-----------------0-0--0-0-0--0-0-0----|
        *  * * *  * * *                 * *  * * *  * * *

-------------------------------------------------|
-------------------------------------------------|
-------------7-8-7-------------------------------|
-------5-7-8-------8-7-5-------------------------|
-5-7-8-------------------8-5---------------------|
-----------------------------0--0-0-0--0-0-0-----|
                             *  * * *  * * *

--------------------------------------------------|
--------------------------------------------------|
---------------7----------------------------------|
-7---8-7-----------------------------7-8-7-<5*>---|
---8-----5-5-8---------------------5--------------|
-----------------0-0--0-0-0--0-0-0----------------|
                 * *  * * *  * * *


--------------------------------------------------|
--------------------------------------------------|
--------------------<7*>--------------------------|
---------7-8-7-<7*>-------------------------------|
-----7--------------------------------------------|
-0-0---0------------------------------------------|
 * *   *

--------------------------------------------------|
--------------------------------------------------|
------------------------------7-<5*>--------------|
---------7-8-7-<7*>-------------------------------|
-----7------------------5-4-5---------------------|\
-0-0---0------------0-0---------------------------| \
 * *   *            * *                              \
                                                      
                                                     /
--------------------------------------------------| /
--------------------------------------------------|/
----------------------------------------7---------|
---------7-8-7-<7*>-----------------4-7-----------|
-----7------------------5-4-5-4-5-7---------------|
-0-0---0------------0-0---------------------------|
 * *   *            * * * * * * * *

--------------------------------------------------|
--------------------------------------------------|
--------------------------------------------------|
-0-0--0-0--0--0-0--0-0--0-0-0-0-0-0---------------|
-0-0--0-0--0--0-0--0-0--0-0-0-0-0-0---------------|
-0-0--0-0--0--0-0--0-0--0-0-0-0-0-0---------------|
 * *  * *  *  * *  * *  * * * * * *

------|--------------------------------------------|
------|--------------------------------------------|
-10-9-|-------10-9------14-12-10-12----------------|
--x-x-|-------x--x-------x--x-x---x------------|
--8-7-|-------8--7------12-10-8--10----------------|
------|-0-0-0-----0-0-0----------------------------|
        * * *     * * *

---------------------|-----------------------------|
---------------------|-----------------------------|
---------------------|-----------------------------|
-----------------|-----------------------------|
---------------------|-12-10-8-10-8-7--------------|
-10-8-8-8-8-8-8------|-----------------------------|


-------------------------------------------------------------|
-------------------------------------------------------------|
----------------------------------10-9-7----7-9----7-9-10----|
-----------------------------------------10-----10-----------|
-------------------------------------------------------------|
-8-7-7-7-7-7-7-7-10-7-7-7-7-7-7-7----------------------------|


--------------------------------------------|
--------------------------------------------|
------10--9------14-12-10-12----------------|
-------x--x-------x--x--x--x------------|
-------8--7------12-10--8-10----------------|
-0-0-0-----0-0-0----------------------------|
 * * *     * * *


-17-15----17--------------------------------------------------------------|
-------18----18-17-18-17-15-17-15----15-----------------------------------|
----------------------------------17----17-16-17-16----16-----------------|
----------------------------------------------------19----19-17-19-17-16--|
--------------------------------------------------------------------------|
--------------------------------------------------------------------------|


-15-----------------------------------------------------------------------|
----17-14-17-14----14-----------------------------------------------------|
----------------15----15----15--------------------------------------------|
-------------------------17----17-14-17-14----14--------------------------|
-------------------------------------------16----16-13-16-13----13--------|
-------------------------------------------------------------17----17-14--|

-------------------------------------------------------------|
-------------------------------------------------------------|
--------------------------------------7----------------------|
-5---0------------------7---8-7------------------------------|
---8----------------------8-----5-5-8------------------------|\
--------0--0-0-0--0-0-0-----------------0-0--0-0-0--0-0-0----| \                   
        *  * * *  * * *                 * *  * * *  * * *       \
                                                                 \
-------------------------------------------------|                
-------------------------------------------------|               /
-------------7-8-7-------------------------------|       _______/
-------5-7-8-------8-7-5-------------------------|      /
-5-7-8-------------------8-5---------------------|     /
-----------------------------0--0-0-0--0-0-0-----|    /
                             *  * * *  * * *         /
                                                    /
--------------------------------------------------|/
--------------------------------------------------|
---------------7----------------------------------|
-7---8-7-----------------------------7-8-7-<5*>---|
---8-----5-5-8---------------------5--------------|
-----------------0-0--0-0-0--0-0-0----------------|
                 * *  * * *  * * *

--------------------------------------------------|
--------------------------------------------------|
--------------------------------------------------|
------0~------------------------------------------|
------0~------------------------------------------|
------0~------------------------------------------|


----------------------------------------------------|
----------------------------------------------------|
----------------------------------------------------|\______
----------------------------------------------------|       \
--8--5--8--5--8--5--7--|        \
----------------------------------------------------|         \
                                                              
                                                             /
-----------------------------------------------------------|/
-----------------------------------------------------------|
-----------------------------------------------------------|
-----------------------------------------------------------|
-4--7--4--7--4------------------------|
-------------------------------------8--5--7--|


----------------------------------------------------|
----------------------------------------------------|
----------------------------------------------------|\
----------------------------------------------------| \      
--8--5--8--5--8--5--7--|  \      
----------------------------------------------------|   \ 
                                                         
----------------------------------------------------|   /
----------------------------------------------------|  /
----------------------------------------------------| /
-------------------------------------8~--5~--7~-----|/
-4--7--4--7--4--8~--5~--7~-----|
-------------------------------------8~--5~--7~-----|


-------------------------------------------------------------------------------|
-------------------------------------------------------------------------------|
-------------------------------------------------------------------------------|
-0-0-0-0-----------0-0-0-0---------------------0-0-0-0------------4-4-4-1-1-1--|
-0-0-0-0-5h8p--0-0-0-0-5h8p--6h9p--0-0-0-0------------4-4-4-1-1-1--|
-0-0-0-0-----------0-0-0-0---------------------0-0-0-0-8h11p--4-4-4-1-1-1--|
 * * * *           * * * *                     * * * *           

--------------------------------------------------|
--------------------------------------------------|
------------------------------7-<5*>--------------|
---------7-8-7-<7*>-------------------------------|
-----7------------------5-4-5---------------------|\
-0-0---0------------0-0---------------------------| \
 * *   *            * *                              \
                                                      
                                                     /
--------------------------------------------------| /
--------------------------------------------------|/
----------------------------------------7---------|
---------7-8-7-<7*>-----------------4-7-----------|
-----7------------------5-4-5-4-5-7---------------|
-0-0---0------------0-0---------------------------|
 * *   *            * * * * * * * *


















4. A LOT LIKE VEGAS:

Intro Riff
---------------------------------------------------------------------------|
---------------------------------------------------------------------------|
---------------------------------------------------------------------------|
---------------------------------------------------------------------------|
-8p5---4h7---8p5---4h7-000-000---------------------------------------------|
-----0-----0-----0-----000-000---------------------------------------------|
     .     .     .     ... ...
-------------------------------|--------------------|------------------------
-------------------------------|--------------------|------------------------
-------------------------------|-33333333-7777-6666-|-33333333-10101010-9999-
-------------------------------|-xxxxxxxx-xxxx-xxxx-|-xxxxxxxx-x-x-x-x--xxxx-
-8p5---4h7---8p5---4h7-000-000-|-11111111-5555-4444-|-11111111-8-8-8-8--7777-
-----0-----0-----0-----000-000-|--------------------|------------------------
     .     .     .     ... ...   1st part              2nd part

"We'll take this feeling to our graves!"
---------------------------------------------------------------------------|
---------------------------------------------------------------------------|
---------------------------------------------------------------------------|
-0--10--7--1010--101010-10-1212-121212-12----------------------------------|
-0--8---5--8-8---8-8-8--8--1010-101010-10----------------------------------|
-0--8---5--8-8---8-8-8--8--1010-101010-10----------------------------------|
let these chords ring. [guitar 1]

---------------------------------------------------------------------------|
---------------------------------------------------------------------------|
-10---------77-777-7-1010-10-99-9------------------------------------------|
-x---10--7--xx-xxx-x-x-x--x--xx-x------------------------------------------|
-8---8---5--55-555-5-8-8--8--77-7------------------------------------------|
-----8---5-----------------------------------------------------------------|
[guitar 2]




"The only place I'll call home is my deathbed."
-------------------------------|------------------------|--------------------
-------------------------------|------------------------|--------------------
-------------------------------|-------7h10--------8h11-|---------10h13------
-------------------------------|----6h9--------7h10-----|-----9h12------10h13
-8p5---4h7---8p5---4h7-000-000-|-5h8--------6h9---------|-8h11---------9h12--
-----0-----0-----0-----000-000-|------------------------|--------------------
     .     .     .     ... ...  [guitar 1]               [guitar 2]



Breakdown [you can figure the chugging before. its all an open chord]
-----------------------------------|---------------|-------------------||----
-----------------------------------|---------------|-------------------||----
-----------------------------------|---------------|-------------------||-118
-000-0-0-000-0-0-00000000---0-0-0--|----6-9---7-10-|-----9-12----10-13-||-x-x
-000-0-0-000-0-0-00000000---0-0-0--|-5-8---6-9-----|-8-11----9-12------||-9-6
-000-0-0-000-0-0-00000000---0-0-0--|---------------|-------------------||----
 [everything is palm muted here.]   [guitar 1]      [guitar 2]            



Solo
-----12h13p12----12h13p12---------------------------12h13h12---12h13h12-17---
-15-----------13--------------------------------------------15---------------
-----14-12-12-12h14h12-12-12h14p12-------------------------12-12h13h12------|
--------------------------15-12---15-12----15-12--15-12-15------------15-12-|
-----------------------------------------------------------------------------
-----------------------------------------------------------------------------

Rhythm to solo
---------------------------------------------------------------------------|
---------------------------------------------------------------------------|
---------------------------------------------------------------------------|
-0----------------8-------5------------------------------------------------|
-0-------5-8-7p5--8-------5---8p7-5----------------------------------------|
-0-000000-0-0---0-8-88888-5-55---5-----------------------------------------|
   ...... . .   .   .....   ..   .

"I know we're so wrong, but it feels so right."
-----------------------|----------------|------------------------------------
-----------------------|----------------|-10h11p10--10-----10h11p10--10----13
-777-999-101010-121212-|----------------|---------12--12-10--------12--12-10-
-xxx-xxx-x-x-x--x-x-x--|-8---8p7--5-----|------------------------------------
-555-777-8-8-8--101010-|-8--------5-----|------------------------------------
-----------------------|-8-88---8-5-55--|------------------------------------
                           ..   .   ..

"I'm running on empty, you're running out of luck." guitar 2 harmonizes with:
---------------------------------------------------------------------------|
-------------------------------13h15p13--13-----13h15p13--13-----17--------|
-101010-121212-141414-151515-----------15--15-14--------15--15-14----------|
-x-x-x--x-x-x--x-x-x--x-x-x------------------------------------------------|
-8-8-8--101010-121212-131313-----------------------------------------------|
---------------------------------------------------------------------------|

End this part with:
-----------------------------------------------------------------------------
-10h11p10--10------10h11p10--10-----13--13h15h13--13------13h15h13--13-----17
---------12--12-10---------12--12-10------------15--15-14---------15--15-14--
-----------------------------------------------------------------------------
-----------------------------------------------------------------------------
-----------------------------------------------------------------------------
[guitar 1]

-----------------------------------------------------------------------------
-13h15h13--13------13h15h13--13-----17--17h18p17--17------17h18p17--17-----20
---------15--15-14---------15--15-14------------19--19-17---------19--19-17--
-----------------------------------------------------------------------------
-----------------------------------------------------------------------------
-----------------------------------------------------------------------------
[guitar 2]


















5. BLACK AND BLUE:

Guitar 1
      E  E  E  E  E  E  E  E     E  E  E  E  E  E  E  E   
C#||--------------------------|--------------------------|
G#||--------------------------|--------------------------|
E ||--------------------------|--------------------------|
B ||--------------------------|--------------------------|
F#||--------5-----6-----3--5--|--------------------------|
B ||--0--0-----0-----0--------|--0--0--0--0--0--0--0--0--|


                                   |---3--|        |--3--|   
  E  E  E  E  E  E  E  E     E  E  E   E  E  E  E  E  E  E   
--------------------------|---------------------------------|
--------------------------|---------------------------------|
--------------------------|--------7--10--7--------6--9--6--|
--------------------------|---------------------------------|
--------5-----6-----3--5--|---------------------------------|
--0--0-----0-----0--------|--0--0------------0--0-----------|


  E  E  E  E  E  E  E  E     E  E  E  E  E  E  E  E   
--------------------------|--------------------------|
--------------------------|--------------------------|
--------------------------|--------------------------|
--------------------------|--------------------------|
--------5-----6-----3--5--|--------------------------|
--0--0-----0-----0--------|--0--0--0--0--0--0--0--0--|


                                   |---3--|        |--3--|   
  E  E  E  E  E  E  E  E     E  E  E   E  E  E  E  E  E  E   
--------------------------|---------------------------------|
--------------------------|---------------------------------|
--------------------------|--------7--10--7--------6--9--6--|
--------------------------|---------------------------------|
--------5-----6-----3--5--|---------------------------------|
--0--0-----0-----0--------|--0--0------------0--0-----------|


  E   E  E   E   E   E   E   E     E  E  E  E  E  E  E  E   
------------------------12--15--|--------------------------|
----------------11--14----------|--------------------------|
---------9--12------------------|--------------------------|
--8--11-------------------------|--------------------------|
--------------------------------|--------5-----6-----3--5--|
--------------------------------|--0--0-----0-----0--------|


  E  E  E  E  E  E  E  E     E  E  E  E  E  E  E  E   
--------------------------|--------------------------|
--------------------------|--------------------------|
--------------------------|--------------------------|
--------------------------|--------------------------|
--------------------------|--------5-----6-----3--5--|
--0--0--0--0--0--0--0--0--|--0--0-----0-----0--------|


        |---3--|        |--3--|                              
  E  E  E   E  E  E  E  E  E  E     E  E  E  E  E  E  E  E   
---------------------------------|--------------------------|
---------------------------------|--------------------------|
--------7--10--7--------6--9--6--|--------------------------|
---------------------------------|--------------------------|
---------------------------------|--------5-----6-----3--5--|
--0--0------------0--0-----------|--0--0-----0-----0--------|


  E  E  E  E  E  E  E  E     E  E  E  E  E  E  E  E   
--------------------------|--------------------------|
--------------------------|--------------------------|
--------------------------|--------------------------|
--------------------------|--------------------------|
--------------------------|--------5-----6-----3--5--|
--0--0--0--0--0--0--0--0--|--0--0-----0-----0--------|


        |---3--|        |--3--|                              
  E  E  E   E  E  E  E  E  E  E     E  E  E  E  E  E  E  E   
---------------------------------|--------------------------|
---------------------------------|--------------------------|
--------7--10--7--------6--9--6--|--------------------------|
---------------------------------|--------------------------|
---------------------------------|--------5-----6-----3--5--|
--0--0------------0--0-----------|--0--0-----0-----0--------|


  E  E  E  E  E  E  E  E     E  E  E  E  E  E  E  E   
--------------------------|--------------------------|
--------------------------|--------------------------|
--------------------------|--------------------------|
--------------------------|--------------------------|
--------------------------|--------5-----6-----3--5--|
--0--0--0--0--0--0--0--0--|--0--0-----0-----0--------|


        |---3--|        |--3--|                              
  E  E  E   E  E  E  E  E  E  E     E  E  E  E  E  E  E  E   
---------------------------------|--------------------------|
---------------------------------|--------------------------|
--------7--10--7--------6--9--6--|--------------------------|
---------------------------------|--------------------------|
---------------------------------|--------5-----6-----3--5--|
--0--0------------0--0-----------|--0--0-----0-----0--------|


  E  E  E  E  E  E  E  E     E  E  E  E  E  E  E  E   
--------------------------|--------------------------|
--------------------------|--------------------------|
--------------------------|--------------------------|
--------------------------|--------------------------|
--------------------------|--------5-----6-----3--5--|
--0--0--0--0--0--0--0--0--|--0--0-----0-----0--------|


        |---3--|        |--3--|                                    
  E  E  E   E  E  E  E  E  E  E     E   E  E   E   E   E   E   E   
---------------------------------|------------------------12--15--|
---------------------------------|----------------11--14----------|
--------7--10--7--------6--9--6--|---------9--12------------------|
---------------------------------|--8--11-------------------------|
---------------------------------|--------------------------------|
--0--0------------0--0-----------|--------------------------------|


  E  E  E  E  E  E  E  E     E  E  E  E  E  E  E  E   
--------------------------|--------------------------|
--------------------------|--------------------------|
--------------------------|--------------------------|
--------------------------|--------------------------|
--------5--8--------5--8--|--------5--8--------5--8--|
--0--0--------0--0--------|--0--0--------0--0--------|


  E  E  E   E  E  E  E   E     E  E  E  E  E  E  E  E   
----------------------------|--------------------------|
----------------------------|--------------------------|
----------------------------|--------------------------|
----------------------------|--------------------------|
--------7--10--------7--10--|--------4--7--------4--7--|
--0--0---------0--0---------|--0--0--------0--0--------|


  E  E  E  E  E  E  E  E     E  E  E  E  E  E  E  E   
--------------------------|--------------------------|
--------------------------|--------------------------|
--------------------------|--------------------------|
--------------------------|--------------------------|
--------5--8--------5--8--|--------5--8--------5--8--|
--0--0--------0--0--------|--0--0--------0--0--------|


  E  E  E   E  E  E  E   E     E  E  E  E  E  E  E  E   
----------------------------|--------------------------|
----------------------------|--------------------------|
----------------------------|--------------------------|
----------------------------|--------------------------|
--------7--10--------7--10--|--------4--7--------4--7--|
--0--0---------0--0---------|--0--0--------0--0--------|


  E  E  E  E  E  E  E  E     E  E  E  E  E  E  E  E   
--------------------------|--------------------------|
--------------------------|--------------------------|
--------------------------|--------------------------|
--------------------------|--------------------------|
--------5--8--------5--8--|--------5--8--------5--8--|
--0--0--------0--0--------|--0--0--------0--0--------|


  E  E  E   E  E  E  E   E     E  E  E  E  E  E  E  E   
----------------------------|--------------------------|
----------------------------|--------------------------|
----------------------------|--------------------------|
----------------------------|--------------------------|
--------7--10--------7--10--|--------4--7--------4--7--|
--0--0---------0--0---------|--0--0--------0--0--------|


  E  E  E  E  E  E  E  E     E  E  E  E  E  E  E  E   
--------------------------|--------------------------|
--------------------------|--------------------------|
--------------------------|--------------------------|
--------------------------|--------------------------|
--------5--8--------5--8--|--------5--8--------5--8--|
--0--0--------0--0--------|--0--0--------0--0--------|


  E  E  E   E  E  E  E   E     E  E  E  E  E  E  E  E   
----------------------------|--------------------------|
----------------------------|--------------------------|
----------------------------|--------------------------|
----------------------------|--------------------------|
--------7--10--------7--10--|--------4--7--------4--7--|
--0--0---------0--0---------|--0--0--------0--0--------|


  S S S S S S S S S S S S S S S S    S S S S S S S S S S S S S S S S  
----------------------------------|----------------------------------|
----------------------------------|----------------------------------|
----------------------------------|----------------------------------|
--------------------------8-8-8-8-|--7-7-7-7-5-5-5-5-----------------|
----------5-5-5-5-8-8-8-8---------|------------------8-8-8-8-7-7-7-7-|
--0-0-0-0-------------------------|----------------------------------|


          |--3--|          |--3--|             |--3--|          |--3--|   
  S S S S E  E  E  S S S S E  E  E     S S S S E  E  E  S S S S E  E  E   
------------------------------------|------------------------------------|
------------------------------------|------------------------------------|
------------------------------------|------------------------------------|
------------------------------------|------------------------------------|
----------5--7--5----------5--7--5--|----------5--8--5----------4--7--4--|
--8-8-8-8----------8-8-8-8----------|--5-5-5-5----------7-7-7-7----------|


  S S S S S S S S S S S S S S S S    S S S S S S S S S S S S S S S S  
----------------------------------|----------------------------------|
----------------------------------|----------------------------------|
----------------------------------|----------------------------------|
--------------------------8-8-8-8-|--7-7-7-7-5-5-5-5-----------------|
----------5-5-5-5-8-8-8-8---------|------------------8-8-8-8-7-7-7-7-|
--0-0-0-0-------------------------|----------------------------------|


          |--3--|          |--3--|             |--3--|          |--3--|   
  S S S S E  E  E  S S S S E  E  E     S S S S E  E  E  S S S S E  E  E   
------------------------------------|------------------------------------|
------------------------------------|------------------------------------|
------------------------------------|------------------------------------|
------------------------------------|------------------------------------|
----------5--7--5----------5--7--5--|----------5--8--5----------4--7--4--|
--8-8-8-8----------8-8-8-8----------|--5-5-5-5----------7-7-7-7----------|


  S S S S S S S S S S S S S S S S    S S S S S S S S S S S S S S S S  
----------------------------------|----------------------------------|
----------------------------------|----------------------------------|
----------------------------------|----------------------------------|
--------------------------8-8-8-8-|--7-7-7-7-5-5-5-5-----------------|
----------5-5-5-5-8-8-8-8---------|------------------8-8-8-8-7-7-7-7-|
--0-0-0-0-------------------------|----------------------------------|


  S S S S S S S S S S S S S S S S    S S S S S S S S S S S S S S S S  
----------------------------------|----------------------------------|
----------------------------------|----------------------------------|
----------------------------------|----------------------------------|
----------------------------------|----------------------------------|
----------5-5-5-5-7-7-7-7-8-8-8-8-|----------5-5-5-5---------4-4-4-4-|
--8-8-8-8-------------------------|--5-5-5-5---------7-7-7-7---------|


  S S S S S S S S S S S S S S S S    S S S S S S S S S S S S S S S S  
----------------------------------|----------------------------------|
----------------------------------|----------------------------------|
----------------------------------|----------------------------------|
--------------------------8-8-8-8-|--7-7-7-7-5-5-5-5-----------------|
----------5-5-5-5-8-8-8-8---------|------------------8-8-8-8-7-7-7-7-|
--0-0-0-0-------------------------|----------------------------------|


  S S S S S S S S S S S S S S S S    S S S S S S S S S S S S S S S S  
----------------------------------|----------------------------------|
----------------------------------|----------------------------------|
----------------------------------|----------------------------------|
----------------------------------|----------------------------------|
----------5-5-5-5-7-7-7-7-8-8-8-8-|----------5-5-5-5---------4-4-4-4-|
--8-8-8-8-------------------------|--5-5-5-5---------7-7-7-7---------|


  S S E  S S E  S S E  E  E     W                   S S E  S S E  S S E  E  E   
-----------------------------|-------------------|---------------------------
-----------------------------|-------------------|---------------------------
-----------------------------|-------------------|---------------------------
-----------------------------|-------------------|---------------------------
--0-0-0--0-0-0--0-0-0--L--L--|--L----------------|--0-0-0--0-0-0--0-0-0--L--L
--0-0-0--0-0-0--0-0-0--L--L--|--L----------------|--0-0-0--0-0-0--0-0-0--L--L


  W                   S S E  S S E  S S E  E  E     W                 
-------------------|-----------------------------|-------------------|
-------------------|-----------------------------|-------------------|
-------------------|-----------------------------|-------------------|
-------------------|-----------------------------|-------------------|
--L----------------|--0-0-0--0-0-0--0-0-0--L--L--|--L----------------|
--L----------------|--0-0-0--0-0-0--0-0-0--L--L--|--L----------------|


  S S E  S S E  S S E  E  E     W                   S S E  S S E  S S E  E  E   
-----------------------------|-------------------|---------------------------
-----------------------------|-------------------|---------------------------
-----------------------------|-------------------|---------------------------
-----------------------------|-------------------|---------------------------
--0-0-0--0-0-0--0-0-0--L--L--|--L----------------|--0-0-0--0-0-0--0-0-0------
--0-0-0--0-0-0--0-0-0--L--L--|--L----------------|--0-0-0--0-0-0--0-0-0------


  E  S S E  S S E  S S E  E     S S E  S S E  S S E  E  E   
-----------------------------|-----------------------------|
-----------------------------|-----------------------------|
-----------------------------|-----------------------------|
-----------------------------|-----------------------------|
-----0-0-0--0-0-0--0-0-0-----|--0-0-0--0-0-0--0-0-0--------|
-----0-0-0--0-0-0--0-0-0-----|--0-0-0--0-0-0--0-0-0--------|


  S S S S S S S S E  E    E   E     S S E  S S E  S S E  E  E   
---------------------------------|-----------------------------|
---------------------------------|-----------------------------|
---------------------------------|-----------------------------|
---------------------------------|-----------------------------|
------------------------<>3~--L--|--0-0-0--0-0-0--0-0-0--------|
--0-0-0-0-0-0-0-0-3--0-----------|--0-0-0--0-0-0--0-0-0--------|


  E  S S E  S S E  S S E  E     S S E  S S E  S S E  E  E   
-----------------------------|-----------------------------|
-----------------------------|-----------------------------|
-----------------------------|-----------------------------|
-----------------------------|-----------------------------|
-----0-0-0--0-0-0--0-0-0-----|--0-0-0--0-0-0--0-0-0--------|
-----0-0-0--0-0-0--0-0-0-----|--0-0-0--0-0-0--0-0-0--------|


  E    E   E    E   E    E   E    E     S S E  S S E  S S E  E  E   
-------------------------------------|-----------------------------|
-------------------------------------|-----------------------------|
--9s--10--10s--12--12s--14--14s--15--|-----------------------------|
-------------------------------------|-----------------------------|
--7s---8---8s--10--10s--12--12s--13--|--0-0-0--0-0-0--0-0-0--L--L--|
-------------------------------------|--0-0-0--0-0-0--0-0-0--L--L--|


  E    E   E    E   E    E   E    E     S S E    S  S E  S S E  E  E   
-------------------------------------|--------------------------------|
-------------------------------------|--------------------------------|
--9s--10--10s--12--12s--14--14s--15--|--------------------------------|
-------------------------------------|--------------------------------|
--7s---8---8s--10--10s--12--12s--13--|--0-0-0--<>3~-L-L--0------------|
-------------------------------------|--0-0-0------------0------------|


  W                   S S E  S S E  S S E  E  E   
-------------------|-----------------------------|
-------------------|-----------------------------|
-------------------|-----------------------------|
-------------------|-----------------------------|
-------------------|--0-0-0--0-0-0--0-0-0--L--L--|
-------------------|--0-0-0--0-0-0--0-0-0--L--L--|


  E    E   E    E   E    E   E    E     S S E    S  S E  S S E  E  E   
-------------------------------------|--------------------------------|
-------------------------------------|--------------------------------|
--9s--10--10s--12--12s--14--14s--15--|--------------------------------|
-------------------------------------|--------------------------------|
--7s---8---8s--10--10s--12--12s--13--|--0-0-0--<>3~-L-L--0------------|
-------------------------------------|--0-0-0------------0------------|


      PM PM               W         PM PM               W   
  S S E  E  E  E  E  E    E     S S E  E  E  E  E  E    E   
-----------------------------|-----------------------------|
-----------------------------|-----------------------------|
-----------------------------|-----------------------------|
---------------3--------<>3--|---------------3--------<>3--|
--0-0-3--2--0--1--0--3-------|--0-0-3--2--0--1--0--3-------|
--0-0-3--2--0-----0--3-------|--0-0-3--2--0-----0--3-------|


      PM PM               W                                      
  S S E  E  E  E  E  E    E     S S S S S S S S S S S S S S S S  
-----------------------------|----------------------------------|
-----------------------------|----------------------------------|
-----------------------------|----------------------------------|
---------------3--------<>3--|----------------------------------|
--0-0-3--2--0--1--0--3-------|--5-5-5-5-4-4-4-4-8-8-8-8-7-7-7-7-|
--0-0-3--2--0-----0--3-------|----------------------------------|


      PM PM               W         PM PM               W   
  S S E  E  E  E  E  E    E     S S E  E  E  E  E  E    E   
-----------------------------|-----------------------------|
-----------------------------|-----------------------------|
-----------------------------|-----------------------------|
---------------3--------<>3--|---------------3--------<>3--|
--0-0-3--2--0--1--0--3-------|--0-0-3--2--0--1--0--3-------|
--0-0-3--2--0-----0--3-------|--0-0-3--2--0-----0--3-------|


      PM PM               W                                      
  S S E  E  E  E  E  E    E     S S S S S S S S S S S S S S S S  
-----------------------------|----------------------------------|
-----------------------------|----------------------------------|
-----------------------------|----------------------------------|
---------------3--------<>3--|----------------------------------|
--0-0-3--2--0--1--0--3-------|--5-5-5-5-4-4-4-4-8-8-8-8-7-7-7-7-|
--0-0-3--2--0-----0--3-------|----------------------------------|


      PM PM                          PM PM       PM   W   
  S S E  E  E  E  E  E  E     E  S S E  E  E  E  E    E   
---------------------------|-----------------------------|
---------------------------|-----------------------------|
---------------------------|-----------------------------|
---------------3-----------|---------------3--------<>3--|
--0-0-3--2--0--1--0--------|-----0-0-3--0--1--0--3-------|
--0-0-3--2--0-----0--------|-----0-0-3--0-----0--3-------|


      PM PM                                                                 
  S S E  E  E  E  E  E  E     S  S S  S S  S  S  S  S  S  S  S  S  S  S  S  
---------------------------|-----------------------------------------------|
---------------------------|-----------------------------------------------|
---------------------------|-------9-12------10-13-------11-14-------12-15-|
---------------3-----------|--8-11------9-12-------10-13-------11-14-------|
--0-0-3--2--0--1--0--------|-----------------------------------------------|
--0-0-3--2--0-----0--------|-----------------------------------------------|


      PM PM                          PM PM       PM   W   
  S S E  E  E  E  E  E  E     E  S S E  E  E  E  E    E   
---------------------------|-----------------------------|
---------------------------|-----------------------------|
---------------------------|-----------------------------|
---------------3-----------|---------------3--------<>3--|
--0-0-3--2--0--1--0--------|-----0-0-3--0--1--0--3-------|
--0-0-3--2--0-----0--------|-----0-0-3--0-----0--3-------|


      PM PM                                                                 
  S S E  E  E  E  E  E  E     S  S S  S S  S  S  S  S  S  S  S  S  S  S  S  
---------------------------|-----------------------------------------------|
---------------------------|-----------------------------------------------|
---------------------------|-------9-12------10-13-------11-14-------12-15-|
---------------3-----------|--8-11------9-12-------10-13-------11-14-------|
--0-0-3--2--0--1--0--------|-----------------------------------------------|
--0-0-3--2--0-----0--------|-----------------------------------------------|


                                                     PM                 PM PM  
   S  S  S  S  S  S  S  S  S  S  S  S  S  S  S  S    E  E  E  E  E  S S E  E   
--------------------------------------------------|--------------------------
--------------------------------------------------|--------------------------
--------13-16-------14-17-------15-18-------16-19-|--------------------------
--12-15-------13-16-------14-17-------15-18-------|--------------------------
--------------------------------------------------|--1--0--L--L--L--0-0-1--3-
--------------------------------------------------|--1--0--L--L--L--0-0-1--3-


  PM                         PM                 PM PM  
  E  E  E  E  E  E  E  E     E  E  E  E  E  S S E  E   
--------------------------|---------------------------|
--------------------------|---------------------------|
--------------------------|---------------------------|
--------------------------|---------------------------|
--1--0--L--L--L--L--L--L--|--1--0--L--L--L--0-0-1--3--|
--1--0--L--L--L--L--L--L--|--1--0--L--L--L--0-0-1--3--|


  PM                                                   
  E  E  E  E  E  E  E  E     E  E  E  E  E  S S E  E   
--------------------------|---------------------------|
--------------------------|---------------------------|
--------------------------|---------------------------|
--------------------------|---------------------------|
--1--0--L--L--L--L--L--L--|--1--0-----------0-0-1--3--|
--1--0--L--L--L--L--L--L--|--1--0-----------0-0-1--3--|


  E  E  E  E  E  E  E  E     E  E  E  E  E  S S E  E   
--------------------------|---------------------------|
--------------------------|---------------------------|
--------------------------|---------------------------|
--------------------------|---------------------------|
--1--0--------------------|--1--0-----------0-0-1--3--|
--1--0--------------------|--1--0-----------0-0-1--3--|


  |-3-|   |--3-|   |-3-|   |-3-|                                        
  S S S S S  S S S S S S S S S S S S S S S    E  E  E  E  E  S S E  E   
-------------------------------------------|---------------------------|
-------------------------------------------|---------------------------|
-------------------------------------------|---------------------------|
-------------------------------------------|---------------------------|
--5-8-5---7-10-7---5-8-5---4-7-4---1-4-1-L-|--1--0-----------0-0-1--3--|
--------0--------0-------0-------0---------|--1--0-----------0-0-1--3--|


  E  E  E  E  E  E  E  E     E  E  E  E  E  S S E  E   
--------------------------|---------------------------|
--------------------------|---------------------------|
--------------------------|---------------------------|
--------------------------|---------------------------|
--1--0--------------------|--1--0-----------0-0-1--3--|
--1--0--------------------|--1--0-----------0-0-1--3--|


  E  E  E  E  E  E  E  E     E  E  E  E  E  S S E  E   
--------------------------|---------------------------|
--------------------------|---------------------------|
--------------------------|---------------------------|
--------------------------|---------------------------|
--1--0--------------------|--1--0-----------0-0-1--3--|
--1--0--------------------|--1--0-----------0-0-1--3--|


  E  E  E  E  E  E  E  E     E  E  E  E  E  S S E  E   
--------------------------|---------------------------|
--------------------------|---------------------------|
--------------------------|---------------------------|
--------------------------|---------------------------|
--1--0--------------------|--1--0-----------0-0-1--3--|
--1--0--------------------|--1--0-----------0-0-1--3--|


  |-3-|   |--3-|   |-3-|   |-3-|                                        
  S S S S S  S S S S S S S S S S S S S S S    E  E  E  E  E  S S E  E   
-------------------------------------------|---------------------------|
-------------------------------------------|---------------------------|
-------------------------------------------|---------------------------|
-------------------------------------------|---------------------------|
--5-8-5---7-10-7---5-8-5---4-7-4---1-4-1-L-|--1--0-----------0-0-1--3--|
--------0--------0-------0-------0---------|--1--0-----------0-0-1--3--|


  E  E  E  E  E  E  E  E     E  E  E  E  E  S S E  E   
--------------------------|---------------------------|
--------------------------|---------------------------|
--------------------------|---------------------------|
--------------------------|---------------------------|
--1--0--------------------|--1--0-----------0-0-1--3--|
--1--0--------------------|--1--0-----------0-0-1--3--|


  E  E  E  E  E  E  E  E     E  E  E  E  E  E  E  E   
--------------------------|--------------------------|
--------------------------|--------------------------|
--------------------------|--------------------------|
--------------------------|--------------------------|
--1--0--------------------|--------5--8--------5--8--|
--1--0--------------------|--0--0--------0--0--------|


  E  E  E  E  E  E  E  E     E  E  E   E  E  E  E   E   
--------------------------|----------------------------|
--------------------------|----------------------------|
--------------------------|----------------------------|
--------------------------|----------------------------|
--------5--8--------5--8--|--------7--10--------7--10--|
--0--0--------0--0--------|--0--0---------0--0---------|


  E  E  E  E  E  E  E  E     E  E  E  E  E  E  E  E   
--------------------------|--------------------------|
--------------------------|--------------------------|
--------------------------|--------------------------|
--------------------------|--------------------------|
--------4--7--------4--7--|--------5--8--------5--8--|
--0--0--------0--0--------|--0--0--------0--0--------|


  E  E  E  E  E  E  E  E     E  E  E   E  E  E  E   E   
--------------------------|----------------------------|
--------------------------|----------------------------|
--------------------------|----------------------------|
--------------------------|----------------------------|
--------5--8--------5--8--|--------7--10--------7--10--|
--0--0--------0--0--------|--0--0---------0--0---------|


  E  E  E  E  E  E  E  E     E  E  E  E  E  E  E  E   
--------------------------|--------------------------|
--------------------------|--------------------------|
--------------------------|--------------------------|
--------------------------|--------------------------|
--------4--7--------4--7--|--------5--8--------5--8--|
--0--0--------0--0--------|--0--0--------0--0--------|


  E  E  E  E  E  E  E  E     E  E  E   E  E  E  E   E   
--------------------------|----------------------------|
--------------------------|----------------------------|
--------------------------|----------------------------|
--------------------------|----------------------------|
--------5--8--------5--8--|--------7--10--------7--10--|
--0--0--------0--0--------|--5--5---------5--5---------|


  E  E  E  E  E  E  E  E     S S S S S S S S S S S S S S S S  
--------------------------|----------------------------------|
--------------------------|----------------------------------|
--------------------------|----------------------------------|
--------------------------|----------------------------------|
--0--0--4--7--0--0--4--7--|--5-5-5-5-5-5-5-5-5-5-5-5-5-5-5-5-|
--------------------------|----------------------------------|


  S S S S S S S S S S S S S S S S    S S S S S S S S S S S S S S S S  
----------------------------------|----------------------------------|
----------------------------------|----------------------------------|
----------------------------------|----------------------------------|
----------------------------------|----------------------------------|
--5-5-5-5-5-5-5-5-5-5-5-5-5-5-5-5-|--7-7-7-7-7-7-7-7-7-7-7-7-7-7-7-7-|
----------------------------------|----------------------------------|


  S S S S S S S S S S S S S S S S    S S S S S S S S S S S S S S S S  
----------------------------------|----------------------------------|
----------------------------------|----------------------------------|
----------------------------------|----------------------------------|
----------------------------------|--------------------------8-8-8-8-|
--8-8-8-8-8-8-8-8-8-8-8-8-8-8-8-8-|----------5-5-5-5-8-8-8-8---------|
----------------------------------|--0-0-0-0-------------------------|


  S S S S S S S S S S S S S S S S    E  E  E  E  E  E  E  E   
----------------------------------|--------------------------|
----------------------------------|--------------------------|
----------------------------------|--------------------------|
--7-7-7-7-5-5-5-5-----------------|--8--L--L--L--L--L--L--L--|
------------------8-8-8-8-7-7-7-7-|--8--L--L--L--L--L--L--L--|
----------------------------------|--8--L--L--L--L--L--L--L--|


  H        H           S S S S S S S S S S S S S S S S  
--------------------|----------------------------------|
--------------------|----------------------------------|
--------------------|----------------------------------|
--5--------7--------|--------------------------8-8-8-8-|
--5--------7--------|----------5-5-5-5-8-8-8-8---------|
--5--------7--------|--0-0-0-0-------------------------|


                                             |--3--|          |--3--|   
  S S S S S S S S S S S S S S S S    S S S S E  E  E  S S S S E  E  E   
----------------------------------|------------------------------------|
----------------------------------|------------------------------------|
----------------------------------|------------------------------------|
--7-7-7-7-5-5-5-5-----------------|------------------------------------|
------------------8-8-8-8-7-7-7-7-|----------5--7--5----------5--7--5--|
----------------------------------|--8-8-8-8----------8-8-8-8----------|


          |--3--|          |--3--|                                      
  S S S S E  E  E  S S S S E  E  E     S S S S S S S S S S S S S S S S  
------------------------------------|----------------------------------|
------------------------------------|----------------------------------|
------------------------------------|----------------------------------|
------------------------------------|--------------------------8-8-8-8-|
----------5--8--5----------4--7--4--|----------5-5-5-5-8-8-8-8---------|
--5-5-5-5----------7-7-7-7----------|--0-0-0-0-------------------------|


  S S S S S S S S S S S S S S S S    S S S S S S S S S S S S S S S S  
----------------------------------|----------------------------------|
----------------------------------|----------------------------------|
----------------------------------|----------------------------------|
--7-7-7-7-5-5-5-5-----------------|----------------------------------|
------------------8-8-8-8-7-7-7-7-|----------5-5-5-5-7-7-7-7-8-8-8-8-|
----------------------------------|--8-8-8-8-------------------------|


  S S S S S S S S S S S S S S S S    W                   W                 
----------------------------------|-------------------|-------------------|
----------------------------------|-------------------|-------------------|
----------------------------------|-------------------|-------------------|
----------------------------------|-------------------|-------------------|
----------5-5-5-5---------4-4-4-4-|--0----------------|--L----------------|
--5-5-5-5---------7-7-7-7---------|--0----------------|--L----------------|


  W                    H        H           W                 
-------------------|---------------------|-------------------|
-------------------|---------------------|-------------------|
--7----------------|--10--------6--------|-------------------|
-------------------|---------------------|-------------------|
--5----------------|---8--------4--------|--0----------------|
-------------------|---------------------|--0----------------|


  W                    H        H           W                 
-------------------|---------------------|-------------------|
-------------------|---------------------|-------------------|
-------------------|---------------------|-------------------|
-------------------|---------------------|-------------------|
--L----------------|---------------------|-------------------|
--L----------------|--12--------L--------|--L----------------|


   E    E   E   E    E   E   E    E      E    E   E   E    E   E   E    E   
-------10--10-------10--10-------10--|-------10--10-------10--10-------10--|
--13b---L---L--13b---L---L--13b---L--|--13b---L---L--13b---L---L--13b---L--|
-------------------------------------|-------------------------------------|
-------------------------------------|-------------------------------------|
-------------------------------------|-------------------------------------|
-------------------------------------|-------------------------------------|


   S   S   E   E   S   S   E   E   S   S   E   
--10h-13p-10------10h-13p-10------10h-13p-10--|
--------------13--------------13--------------|
----------------------------------------------|
----------------------------------------------|
----------------------------------------------|
----------------------------------------------|


                                                         |----3----|          
   E   S   S   E   S   S   E   E   E   E      H          E     E   E  E   E   
------10h-13p-10--10h-13p-10------13--10--|--13b--------13pb--12-------------
--12--------------------------13----------|-----------------------10--8s--6--
------------------------------------------|----------------------------------
------------------------------------------|----------------------------------
------------------------------------------|----------------------------------
------------------------------------------|----------------------------------


  Q    H        Q      
----------------------|
--6----5--------L/----|
----------------------|
----------------------|
----------------------|
----------------------|


   |----3----|   |----3----|   |----3----|   |----3----|   
   E    E    E   E    E    E   E    E    E   E    E    E   
--17p--15p--13----------------13p--12p--10----------------|
----------------17p--15p--13----------------13p--11p--10--|
----------------------------------------------------------|
----------------------------------------------------------|
----------------------------------------------------------|
----------------------------------------------------------|


   |----3---|                                                         
   E    E   E   E  E  H               E   E   E   E   E   E   E   E   
--------------------------------||---17----------17----------17------|
--11p--10p--8-------------------||-------18----------18----------18--|
---------------10--9--7~--------||*----------19----------19----------|
--------------------------------||*----------------------------------|
--------------------------------||-----------------------------------|
--------------------------------||-----------------------------------|


   E   E   E   E   E   E   E   E   
--18----------18----------18------|
------18----------18----------18--|
----------19----------19----------|
----------------------------------|
----------------------------------|
----------------------------------|


   |----3----|   |----3----|   |----3----|   |----3----|   
   E    E    E   E    E    E   E    E    E   E    E    E   
--20p--13p--10--20p--13p--10--20p--13p--10--20p--13p--10--|
----------------------------------------------------------|
----------------------------------------------------------|
----------------------------------------------------------|
----------------------------------------------------------|
----------------------------------------------------------|


   |----3----|   |----3----|   |----3----|   |----3----|     
   E    E    E   E    E    E   E    E    E   E    E    E     
--20p--13p--10--20p--13p--10--20p--13p--10--20p--13p--10---||
-----------------------------------------------------------||
----------------------------------------------------------*||
----------------------------------------------------------*||
-----------------------------------------------------------||
-----------------------------------------------------------||


    |----3----|   |----3----|   |----3----|   |----3----|   
    E    E    E   E    E    E   E    E    E   E    E    E   
---22p--13p--10--20p--13p--10--22p--13p--10--24p--13p--10--|
-----------------------------------------------------------|
*----------------------------------------------------------|
*----------------------------------------------------------|
-----------------------------------------------------------|
-----------------------------------------------------------|


   |----3----|   |----3----|   |----3----|   |----3----|   
   E    E    E   E    E    E   E    E    E   E    E    E   
--22p--13p--10--20p--13p--10--22p--13p--10--20p--13p--10--|
----------------------------------------------------------|
----------------------------------------------------------|
----------------------------------------------------------|
----------------------------------------------------------|
----------------------------------------------------------|


   |----3----|   |----3----|   |----3----|   |----3----|   
   E    E    E   E    E    E   E    E    E   E    E    E   
--22p--13p--10--20p--13p--10--22p--13p--10--24p--13p--10--|
----------------------------------------------------------|
----------------------------------------------------------|
----------------------------------------------------------|
----------------------------------------------------------|
----------------------------------------------------------|


   |----3----|   |----3----|   |----3----|   |----3----|     
   E    E    E   E    E    E   E    E    E   E    E    E     
--22p--13p--10--20p--13p--10--22p--13p--10--20p--13p--10---||
-----------------------------------------------------------||
----------------------------------------------------------*||
----------------------------------------------------------*||
-----------------------------------------------------------||
-----------------------------------------------------------||


   |----3----|   |----3----|   |----3----|   |----3----|   
   E    E    E   E    E    E   E    E    E   E    E    E   
--17p--15p--13--------------------------------------------|
----------------17p--15p--13------------------------------|
------------------------------15p--14p--12----------------|
--------------------------------------------15p--14p--12--|
----------------------------------------------------------|
----------------------------------------------------------|


  E  E  E  E  E  E  E  E     E  S E  S E  E  S S E  E   
--------------------------|----------------------------|
--------------------------|----------------------------|
--------------------------|----------------------------|
--------------------------|----------------------------|
--0-----------------------|-----0-0--0-0-----0-0-0-----|
--0-----------------------|-----0-0--0-0-----0-0-0-----|


  E  E  E  E  E  E  E  E     E  S E  S E  E  S S E  E   
--------------------------|----------------------------|
--------------------------|----------------------------|
--------------------------|----------------------------|
--------------------------|----------------------------|
--0-----------------------|-----0-0--0-0-----0-0-0-----|
--0-----------------------|-----0-0--0-0-----0-0-0-----|


  E  E  E  E  E  E  E  E     E  S E  S E  E  S S E  E   
--------------------------|----------------------------|
--------------------------|----------------------------|
--------------------------|----------------------------|
--------------------------|----------------------------|
--0-----------------------|-----0-0--0-0-----0-0-0-----|
--0-----------------------|-----0-0--0-0-----0-0-0-----|


  E  E  E  E  E  E  E  E     E  S E  S E  E  S S E  E   
--------------------------|----------------------------|
--------------------------|----------------------------|
--------------------------|----------------------------|
--------------------------|----------------------------|
--0-----------------------|-----0-0--0-0-----0-0-0-----|
--0-----------------------|-----0-0--0-0-----0-0-0-----|


  E  E  E  E  E  E  E  E     E  S E  S E  E  S S E  E   
--------------------------|----------------------------|
--------------------------|----------------------------|
--------------------------|----------------------------|
--------------------------|----------------------------|
--1-----------------------|-----1-1--1-1-----1-1-1-----|
--1-----------------------|-----1-1--1-1-----1-1-1-----|


  E  E  E  E  E  E  E  E     E  S E  S E  E  S S E  E   
--------------------------|----------------------------|
--------------------------|----------------------------|
--------------------------|----------------------------|
--------------------------|----------------------------|
--1-----------------------|-----1-1--1-1-----1-1-1-----|
--1-----------------------|-----1-1--1-1-----1-1-1-----|


  E  E  E  E  E  E  E  E     E  S E  S E  E  S S E  E   
--------------------------|----------------------------|
--------------------------|----------------------------|
--------------------------|----------------------------|
--------------------------|----------------------------|
--0-----------------------|-----0-0--0-0-----0-0-0-----|
--0-----------------------|-----0-0--0-0-----0-0-0-----|


  E  E  E  E  E  E  E  E     E  S E  S E  E  S S E  E   
--------------------------|----------------------------|
--------------------------|----------------------------|
--------------------------|----------------------------|
--------------------------|----------------------------|
--0-----------------------|-----0-0--0-0-----0-0-0-----|
--0-----------------------|-----0-0--0-0-----0-0-0-----|


  E  E  E  E  E  E  E  E     E  S E  S E  E  S S E  E   
--------------------------|----------------------------|
--------------------------|----------------------------|
--------------------------|----------------------------|
--------------------------|----------------------------|
--0-----------------------|-----0-0--0-0-----0-0-0-----|
--0-----------------------|-----0-0--0-0-----0-0-0-----|


  E  E  E  E  E  E  E  E     E  S E  S E  E  S S E  E   
--------------------------|----------------------------|
--------------------------|----------------------------|
--------------------------|----------------------------|
--------------------------|----------------------------|
--0-----------------------|-----0-0--0-0-----0-0-0-----|
--0-----------------------|-----0-0--0-0-----0-0-0-----|


  E  E  E  E  E  E  E  E     E  S E  S E  E  S S E  E   
--------------------------|----------------------------|
--------------------------|----------------------------|
--------------------------|----------------------------|
--------------------------|----------------------------|
--0-----------------------|-----0-0--0-0-----0-0-0-----|
--0-----------------------|-----0-0--0-0-----0-0-0-----|


  E  E  E  E  E  E  E  E     E  S E  S E  E  S S E  E   
--------------------------|----------------------------|
--------------------------|----------------------------|
--------------------------|----------------------------|
--------------------------|----------------------------|
--0-----------------------|-----0-0--0-0-----0-0-0-----|
--0-----------------------|-----0-0--0-0-----0-0-0-----|


  E  E  E  E  E  E  E  E          
--------------------------|-----||
--------------------------|-----||
--------------------------|-----||
--------------------------|-----||
--0-----------------------|-----||
--0-----------------------|-----||



Guitar 2
                                    |--3--|        |--3--|   
                              E  E  E  E  E  E  E  E  E  E   
C#||-------|-------|-------|--------------------------------|
G#||-------|-------|-------|--------------------------------|
E ||-------|-------|-------|--------------------------------|
B ||-------|-------|-------|--------------------------------|
F#||-------|-------|-------|--------5--8--5--------4--7--4--|
B ||-------|-------|-------|--0--0-----------0--0-----------|


  W                   W                   W                 
-------------------|-------------------|-------------------|
-------------------|-------------------|-------------------|
-------------------|-------------------|-------------------|
-------------------|-------------------|-------------------|
--0----------------|--L----------------|--L----------------|
--0----------------|--L----------------|--L----------------|


        |--3--|        |--3--|                                
  E  E  E  E  E  E  E  E  E  E     E  E  E  E  E   E  E   E   
--------------------------------|---------------------9--12--|
--------------------------------|--------------8--11---------|
--------------------------------|--------6--9----------------|
--------------------------------|--5--8----------------------|
--------5--8--5--------4--7--4--|----------------------------|
--0--0-----------0--0-----------|----------------------------|


  E  E  E  E  E  E  E  E     E  E  E  E  E  E  E  E   
--------------------------|--------------------------|
--------------------------|--------------------------|
--------------------------|--------------------------|
--------------------------|--------------------------|
--------5-----6-----3--5--|--------------------------|
--0--0-----0-----0--------|--0--0--0--0--0--0--0--0--|


                                   |--3--|        |--3--|   
  E  E  E  E  E  E  E  E     E  E  E  E  E  E  E  E  E  E   
--------------------------|--------------------------------|
--------------------------|--------6--9--6--------5--8--5--|
--------------------------|--------------------------------|
--------------------------|--------------------------------|
--------5-----6-----3--5--|--------------------------------|
--0--0-----0-----0--------|--0--0-----------0--0-----------|


  E  E  E  E  E  E  E  E     E  E  E  E  E  E  E  E   
--------------------------|--------------------------|
--------------------------|--------------------------|
--------------------------|--------------------------|
--------------------------|--------------------------|
--------5-----6-----3--5--|--------------------------|
--0--0-----0-----0--------|--0--0--0--0--0--0--0--0--|


                                   |--3--|        |--3--|   
  E  E  E  E  E  E  E  E     E  E  E  E  E  E  E  E  E  E   
--------------------------|--------------------------------|
--------------------------|--------6--9--6--------5--8--5--|
--------------------------|--------------------------------|
--------------------------|--------------------------------|
--------5-----6-----3--5--|--------------------------------|
--0--0-----0-----0--------|--0--0-----------0--0-----------|


  E  E  E  E  E  E  E  E     E  E  E  E  E  E  E  E   
--------------------------|--------------------------|
--------------------------|--------------------------|
--------------------------|--------------------------|
--------------------------|--------------------------|
--------5-----6-----3--5--|--------------------------|
--0--0-----0-----0--------|--0--0--0--0--0--0--0--0--|


                                   |--3--|        |--3--|   
  E  E  E  E  E  E  E  E     E  E  E  E  E  E  E  E  E  E   
--------------------------|--------------------------------|
--------------------------|--------6--9--6--------5--8--5--|
--------------------------|--------------------------------|
--------------------------|--------------------------------|
--------5-----6-----3--5--|--------------------------------|
--0--0-----0-----0--------|--0--0-----------0--0-----------|


  E  E  E  E  E  E  E  E     E  E  E  E  E  E  E  E   
--------------------------|--------------------------|
--------------------------|--------------------------|
--------------------------|--------------------------|
--------------------------|--------------------------|
--------5-----6-----3--5--|--------------------------|
--0--0-----0-----0--------|--0--0--0--0--0--0--0--0--|


                                   |--3--|        |--3--|   
  E  E  E  E  E  E  E  E     E  E  E  E  E  E  E  E  E  E   
--------------------------|--------------------------------|
--------------------------|--------6--9--6--------5--8--5--|
--------------------------|--------------------------------|
--------------------------|--------------------------------|
--------5-----6-----3--5--|--------------------------------|
--0--0-----0-----0--------|--0--0-----------0--0-----------|


  E  E  E  E  E   E  E   E     E  E  E  E  E  E  E  E   
---------------------9--12--|--------------------------|
--------------8--11---------|--------------------------|
--------6--9----------------|--------------------------|
--5--8----------------------|--------------------------|
----------------------------|--------5--8--------5--8--|
----------------------------|--0--0--------0--0--------|


  E  E  E  E  E  E  E  E     E  E  E   E  E  E  E   E   
--------------------------|----------------------------|
--------------------------|----------------------------|
--------------------------|----------------------------|
--------------------------|----------------------------|
--------5--8--------5--8--|--------7--10--------7--10--|
--0--0--------0--0--------|--0--0---------0--0---------|


  E  E  E  E  E  E  E  E     E  E  E  E  E  E  E  E   
--------------------------|--------------------------|
--------------------------|--------------------------|
--------------------------|--------------------------|
--------------------------|--------------------------|
--------4--7--------4--7--|--------5--8--------5--8--|
--0--0--------0--0--------|--0--0--------0--0--------|


  E  E  E  E  E  E  E  E     E  E  E   E  E  E  E   E   
--------------------------|----------------------------|
--------------------------|----------------------------|
--------------------------|----------------------------|
--------------------------|----------------------------|
--------5--8--------5--8--|--------7--10--------7--10--|
--0--0--------0--0--------|--0--0---------0--0---------|


  E  E  E  E  E  E  E  E     E  E  E  E  E  E  E  E   
--------------------------|--------------------------|
--------------------------|--------------------------|
--------------------------|--------------------------|
--------------------------|--------3--7--------3--7--|
--------4--7--------4--7--|--------------------------|
--0--0--------0--0--------|--0--0--------0--0--------|


  E  E  E  E  E  E  E  E     E  E  E  E  E  E  E  E   
--------------------------|--------------------------|
--------------------------|--------------------------|
--------------------------|--------------------------|
--------3--7--------3--7--|--------5--8--------5--8--|
--------------------------|--------------------------|
--0--0--------0--0--------|--0--0--------0--0--------|


  E  E  E  E  E  E  E  E     E  E  E  E  E  E  E  E   
--------------------------|--------------------------|
--------------------------|--------------------------|
--------------------------|--------------------------|
--------2--5--------2--5--|--------3--7--------3--7--|
--------------------------|--------------------------|
--0--0--------0--0--------|--0--0--------0--0--------|


  E  E  E  E  E  E  E  E     E  E  E  E  E  E  E  E   
--------------------------|--------------------------|
--------------------------|--------------------------|
--------------------------|--------------------------|
--------3--7--------3--7--|--------5--8--------5--8--|
--------------------------|--------------------------|
--0--0--------0--0--------|--0--0--------0--0--------|


  E  E  E  E  E  E  E  E     Q    Q    Q    Q       W                 
--------------------------|----------------------|-------------------|
--------------------------|----------------------|-------------------|
--------------------------|----------------------|-------------------|
--------2--5--------2--5--|----------------------|-------------------|
--------------------------|--0-------------------|-------------------|
--0--0--------0--0--------|--0-------------------|-------------------|


          |--3--|          |--3--|             |--3--|          |--3--|   
  S S S S E  E  E  S S S S E  E  E     S S S S E  E  E  S S S S E  E  E   
------------------------------------|------------------------------------|
------------------------------------|------------------------------------|
------------------------------------|------------------------------------|
------------------------------------|------------------------------------|
----------5--7--5----------5--7--5--|----------5--8--5----------4--7--4--|
--8-8-8-8----------8-8-8-8----------|--5-5-5-5----------7-7-7-7----------|


  S S S S S S S S S S S S S S S S    S S S S S S S S S S S S S S S S  
----------------------------------|----------------------------------|
----------------------------------|----------------------------------|
----------------------------------|----------------------------------|
--------------------------8-8-8-8-|--7-7-7-7-5-5-5-5-----------------|
----------5-5-5-5-8-8-8-8---------|------------------8-8-8-8-7-7-7-7-|
--0-0-0-0-------------------------|----------------------------------|


          |--3--|          |--3--|             |--3--|          |--3--|   
  S S S S E  E  E  S S S S E  E  E     S S S S E  E  E  S S S S E  E  E   
------------------------------------|------------------------------------|
------------------------------------|------------------------------------|
------------------------------------|------------------------------------|
------------------------------------|------------------------------------|
----------5--7--5----------5--7--5--|----------5--8--5----------4--7--4--|
--8-8-8-8----------8-8-8-8----------|--5-5-5-5----------7-7-7-7----------|


  S S S S S S S S S S S S S S S S    S S S S S S S S S S S S S S S S  
----------------------------------|----------------------------------|
----------------------------------|----------------------------------|
----------------------------------|----------------------------------|
--------------------------8-8-8-8-|--7-7-7-7-5-5-5-5-----------------|
----------5-5-5-5-8-8-8-8---------|------------------8-8-8-8-7-7-7-7-|
--0-0-0-0-------------------------|----------------------------------|


  S S S S S S S S S S S S S S S S    S S S S S S S S S S S S S S S S  
----------------------------------|----------------------------------|
----------------------------------|----------------------------------|
----------------------------------|----------------------------------|
----------------------------------|----------------------------------|
----------5-5-5-5-7-7-7-7-8-8-8-8-|----------5-5-5-5---------4-4-4-4-|
--8-8-8-8-------------------------|--5-5-5-5---------7-7-7-7---------|


  S S S S S S S S S S S S S S S S    S S S S S S S S S S S S S S S S  
----------------------------------|----------------------------------|
----------------------------------|----------------------------------|
----------------------------------|----------------------------------|
--------------------------8-8-8-8-|--7-7-7-7-5-5-5-5-----------------|
----------5-5-5-5-8-8-8-8---------|------------------8-8-8-8-7-7-7-7-|
--0-0-0-0-------------------------|----------------------------------|


  S S S S S S S S S S S S S S S S    S S S S S S S S S S S S S S S S  
----------------------------------|----------------------------------|
----------------------------------|----------------------------------|
----------------------------------|----------------------------------|
----------------------------------|----------------------------------|
----------5-5-5-5-7-7-7-7-8-8-8-8-|----------5-5-5-5---------4-4-4-4-|
--8-8-8-8-------------------------|--5-5-5-5---------7-7-7-7---------|


  S S E  S S E  S S E  E  E     W                   S S E  S S E  S S E  E  E   
-----------------------------|-------------------|---------------------------
-----------------------------|-------------------|---------------------------
-----------------------------|-------------------|---------------------------
-----------------------------|-------------------|---------------------------
--0-0-0--0-0-0--0-0-0--L--L--|--L----------------|--0-0-0--0-0-0--0-0-0--L--
--0-0-0--0-0-0--0-0-0--L--L--|--L----------------|--0-0-0--0-0-0--0-0-0--L--


  W                   S S E  S S E  S S E  E  E     W                 
-------------------|-----------------------------|-------------------|
-------------------|-----------------------------|-------------------|
-------------------|-----------------------------|-------------------|
-------------------|-----------------------------|-------------------|
--L----------------|--0-0-0--0-0-0--0-0-0--L--L--|--L----------------|
--L----------------|--0-0-0--0-0-0--0-0-0--L--L--|--L----------------|


  S S E  S S E  S S E  E  E     W                   S S E  S S E  S S E  E  E   
-----------------------------|-------------------|---------------------------
-----------------------------|-------------------|---------------------------
-----------------------------|-------------------|---------------------------
-----------------------------|-------------------|---------------------------
--0-0-0--0-0-0--0-0-0--L--L--|--L----------------|--0-0-0--0-0-0--0-0-0------
--0-0-0--0-0-0--0-0-0--L--L--|--L----------------|--0-0-0--0-0-0--0-0-0------


  E  S S E  S S E  S S E  E     S S E  S S E  S S E  E  E   
-----------------------------|-----------------------------|
-----------------------------|-----------------------------|
-----------------------------|-----------------------------|
-----------------------------|-----------------------------|
-----0-0-0--0-0-0--0-0-0-----|--0-0-0--0-0-0--0-0-0--------|
-----0-0-0--0-0-0--0-0-0-----|--0-0-0--0-0-0--0-0-0--------|


  S S S S S S S S E  E    E   E     S S E  S S E  S S E  E  E   
---------------------------------|-----------------------------|
---------------------------------|-----------------------------|
---------------------------------|-----------------------------|
---------------------------------|-----------------------------|
------------------------<>3~--L--|--0-0-0--0-0-0--0-0-0--------|
--0-0-0-0-0-0-0-0-3--0-----------|--0-0-0--0-0-0--0-0-0--------|


  E  S S E  S S E  S S E  E     S S E  S S E  S S E  E  E   
-----------------------------|-----------------------------|
-----------------------------|-----------------------------|
-----------------------------|-----------------------------|
-----------------------------|-----------------------------|
-----0-0-0--0-0-0--0-0-0-----|--0-0-0--0-0-0--0-0-0--------|
-----0-0-0--0-0-0--0-0-0-----|--0-0-0--0-0-0--0-0-0--------|


  E   E  E   E  E    E   E    E     S S E  S S E  S S E  E  E   
---------------------------------|-----------------------------|
---------------------------------|-----------------------------|
--6s--7--7s--9--9s--10--10s--12--|-----------------------------|
---------------------------------|-----------------------------|
--4s--5--5s--7--7s---8---8s--10--|--0-0-0--0-0-0--0-0-0--L--L--|
---------------------------------|--0-0-0--0-0-0--0-0-0--L--L--|


  E   E  E   E  E    E   E    E     S S E  S S E  S S E  E  E         
---------------------------------|-----------------------------|-----|
---------------------------------|-----------------------------|-----|
--6s--7--7s--9--9s--10--10s--12--|-----------------------------|-----|
---------------------------------|-----------------------------|-----|
--4s--5--5s--7--7s---8---8s--10--|--0-0-0--0-0-0--0------------|-----|
---------------------------------|--0-0-0--0-0-0--0------------|-----|


  S S E  S S E  S S E  E  E     E   E  E   E  E    E   E    E   
-----------------------------|---------------------------------|
-----------------------------|---------------------------------|
-----------------------------|--6s--7--7s--9--9s--10--10s--12--|
-----------------------------|---------------------------------|
--0-0-0--0-0-0--0-0-0--L--L--|--4s--5--5s--7--7s---8---8s--10--|
--0-0-0--0-0-0--0-0-0--L--L--|---------------------------------|


                                    PM PM               W   
  S S E  S S E  S S E  E  E     S S E  E  E  E  E  E    E   
-----------------------------|-----------------------------|
-----------------------------|-----------------------------|
-----------------------------|-----------------------------|
-----------------------------|---------------3--------<>3--|
--0-0-0--0-0-0--0------------|--0-0-3--2--0--1--0--3-------|
--0-0-0--0-0-0--0------------|--0-0-3--2--0-----0--3-------|


      PM PM               W         PM PM               W   
  S S E  E  E  E  E  E    E     S S E  E  E  E  E  E    E   
-----------------------------|-----------------------------|
-----------------------------|-----------------------------|
-----------------------------|-----------------------------|
---------------3--------<>3--|---------------3--------<>3--|
--0-0-3--2--0--1--0--3-------|--0-0-3--2--0--1--0--3-------|
--0-0-3--2--0-----0--3-------|--0-0-3--2--0-----0--3-------|


                                         PM PM               W   
  S S S S S S S S S S S S S S S S    S S E  E  E  E  E  E    E   
----------------------------------|-----------------------------|
----------------------------------|-----------------------------|
----------------------------------|-----------------------------|
--3-3-3-3-2-2-2-2-3-3-3-3-2-2-2-2-|---------------3--------<>3--|
----------------------------------|--0-0-3--2--0--1--0--3-------|
----------------------------------|--0-0-3--2--0-----0--3-------|


      PM PM               W         PM PM               W   
  S S E  E  E  E  E  E    E     S S E  E  E  E  E  E    E   
-----------------------------|-----------------------------|
-----------------------------|-----------------------------|
-----------------------------|-----------------------------|
---------------3--------<>3--|---------------3--------<>3--|
--0-0-3--2--0--1--0--3-------|--0-0-3--2--0--1--0--3-------|
--0-0-3--2--0-----0--3-------|--0-0-3--2--0-----0--3-------|


                                         PM PM                 
  S S S S S S S S S S S S S S S S    S S E  E  E  E  E  E  E   
----------------------------------|---------------------------|
----------------------------------|---------------------------|
----------------------------------|---------------------------|
--3-3-3-3-2-2-2-2-3-3-3-3-2-2-2-2-|---------------3-----------|
----------------------------------|--0-0-3--2--0--1--0--------|
----------------------------------|--0-0-3--2--0-----0--------|


         PM PM       PM   W         PM PM                 
  E  S S E  E  E  E  E    E     S S E  E  E  E  E  E  E   
-----------------------------|---------------------------|
-----------------------------|---------------------------|
-----------------------------|---------------------------|
---------------3--------<>3--|---------------3-----------|
-----0-0-3--0--1--0--3-------|--0-0-3--2--0--1--0--------|
-----0-0-3--0-----0--3-------|--0-0-3--2--0-----0--------|


                                                      PM PM                    
  S  S S  S S  S  S  S  S  S  S  S  S  S  S  S    S S E  E  E  E  E    E   E   
-----------------------------------------------|-----------------------------
-----------------------------------------------|-----------------------------
-------9-12------10-13-------11-14-------12-15-|---------------------<>5~--L-
--8-11------9-12-------10-13-------11-14-------|---------------3-------------
-----------------------------------------------|--0-0-3--2--0--1--0----------
-----------------------------------------------|--0-0-3--2--0-----0----------


         PM PM       PM   W         PM PM                 
  E  S S E  E  E  E  E    E     S S E  E  E  E  E  E  E   
-----------------------------|---------------------------|
-----------------------------|---------------------------|
--L--------------------------|---------------------------|
---------------3--------<>3--|---------------3-----------|
-----0-0-3--0--1--0--3-------|--0-0-3--2--0--1--0--------|
-----0-0-3--0-----0--3-------|--0-0-3--2--0-----0--------|


  S  S S  S S  S  S  S  S  S  S  S  S  S  S  S  
-----------------------------------------------|
-----------------------------------------------|
-------9-12------10-13-------11-14-------12-15-|
--8-11------9-12-------10-13-------11-14-------|
-----------------------------------------------|
-----------------------------------------------|


                                                     PM                 PM PM  
   S  S  S  S  S  S  S  S  S  S  S  S  S  S  S  S    E  E  E  E  E  S S E  E   
--------------------------------------------------|--------------------------
--------------------------------------------------|--------------------------
--------13-16-------14-17-------15-18-------16-19-|--------------------------
--12-15-------13-16-------14-17-------15-18-------|--------------------------
--------------------------------------------------|--1--0--L--L--L--0-0-1--3-
--------------------------------------------------|--1--0--L--L--L--0-0-1--3-


  PM                         PM                 PM PM  
  E  E  E  E  E  E  E  E     E  E  E  E  E  S S E  E   
--------------------------|---------------------------|
--------------------------|---------------------------|
--------------------------|---------------------------|
--------------------------|---------------------------|
--1--0--L--L--L--L--L--L--|--1--0--L--L--L--0-0-1--3--|
--1--0--L--L--L--L--L--L--|--1--0--L--L--L--0-0-1--3--|


  PM                                                   
  E  E  E  E  E  E  E  E     E  E  E  E  E  S S E  E   
--------------------------|---------------------------|
--------------------------|---------------------------|
--------------------------|---------------------------|
--------------------------|---------------------------|
--1--0--L--L--L--L--L--L--|--1--0-----------0-0-1--3--|
--1--0--L--L--L--L--L--L--|--1--0-----------0-0-1--3--|


  E  E  E  E  E  E  E  E     E  E  E  E  E  S S E  E   
--------------------------|---------------------------|
--------------------------|---------------------------|
--------------------------|---------------------------|
--------------------------|---------------------------|
--1--0--------------------|--1--0-----------0-0-1--3--|
--1--0--------------------|--1--0-----------0-0-1--3--|


  |-3-|   |--3-|   |-3-|   |-3-|                                        
  S S S S S  S S S S S S S S S S S S S S S    E  E  E  E  E  S S E  E   
-------------------------------------------|---------------------------|
-------------------------------------------|---------------------------|
-------------------------------------------|---------------------------|
-------------------------------------------|---------------------------|
--5-8-5---7-10-7---5-8-5---4-7-4---1-4-1-L-|--1--0-----------0-0-1--3--|
--------0--------0-------0-------0---------|--1--0-----------0-0-1--3--|


  E  E  E  E  E  E  E  E     E  E  E  E  E  S S E  E   
--------------------------|---------------------------|
--------------------------|---------------------------|
--------------------------|---------------------------|
--------------------------|---------------------------|
--1--0--------------------|--1--0-----------0-0-1--3--|
--1--0--------------------|--1--0-----------0-0-1--3--|


  E  S S S S S S S S S S S S S S    E  E  E  E  E  S S E  E   
---------------------------------|---------------------------|
---------------------------------|---------------------------|
---------------------------------|---------------------------|
---------------------------------|---------------------------|
--1------------------------------|--1--0-----------0-0-1--3--|
--1--0-0---0-0---0-0-0-0-0-0-0-0-|--1--0-----------0-0-1--3--|


  E  E  E  E  E  E  E  E     E  E  E  E  E  S S E  E   
--------------------------|---------------------------|
--------------------------|---------------------------|
--------------------------|---------------------------|
--------------------------|---------------------------|
--1--0--------------------|--1--0-----------0-0-1--3--|
--1--0--------------------|--1--0-----------0-0-1--3--|


  |-3-|   |--3-|   |-3-|   |-3-|                                        
  S S S S S  S S S S S S S S S S S S S S S    E  E  E  E  E  S S E  E   
-------------------------------------------|---------------------------|
-------------------------------------------|---------------------------|
-------------------------------------------|---------------------------|
-------------------------------------------|---------------------------|
--5-8-5---7-10-7---5-8-5---4-7-4---1-4-1-L-|--1--0-----------0-0-1--3--|
--------0--------0-------0-------0---------|--1--0-----------0-0-1--3--|


  E  E  E  E  E  E  E  E     E  E  E  E  E  S S E  E   
--------------------------|---------------------------|
--------------------------|---------------------------|
--------------------------|---------------------------|
--------------------------|---------------------------|
--1--0--------------------|--1--0-----------0-0-1--3--|
--1--0--------------------|--1--0-----------0-0-1--3--|


  E  S S S S S S S S S S S S S S    E  E  E  E  E  E  E  E   
---------------------------------|--------------------------|
---------------------------------|--------------------------|
---------------------------------|--------------------------|
---------------------------------|--------------------------|
--1------------------------------|--------5--8--------5--8--|
--1--0-0---0-0---0-0-0-----------|--0--0--------0--0--------|


  E  E  E  E  E  E  E  E     E  E  E   E  E  E  E   E   
--------------------------|----------------------------|
--------------------------|----------------------------|
--------------------------|----------------------------|
--------------------------|----------------------------|
--------5--8--------5--8--|--------7--10--------7--10--|
--0--0--------0--0--------|--0--0---------0--0---------|


  E  E  E  E  E  E  E  E     E  E  E  E  E  E  E  E   
--------------------------|--------------------------|
--------------------------|--------------------------|
--------------------------|--------------------------|
--------------------------|--------------------------|
--------4--7--------4--7--|--------5--8--------5--8--|
--0--0--------0--0--------|--0--0--------0--0--------|


  E  E  E  E  E  E  E  E     E  E  E   E  E  E  E   E   
--------------------------|----------------------------|
--------------------------|----------------------------|
--------------------------|----------------------------|
--------------------------|----------------------------|
--------5--8--------5--8--|--------7--10--------7--10--|
--0--0--------0--0--------|--0--0---------0--0---------|


  E  E  E  E  E  E  E  E     E  E  E  E  E  E  E  E   
--------------------------|--------------------------|
--------------------------|--------------------------|
--------------------------|--------------------------|
--------------------------|--------3--7--------3--7--|
--------4--7--------4--7--|--------------------------|
--0--0--------0--0--------|--0--0--------0--0--------|


  E  E  E  E  E  E  E  E     E  E  E  E  E  E  E  E   
--------------------------|--------------------------|
--------------------------|--------------------------|
--------------------------|--------------------------|
--------3--7--------3--7--|--------5--8--------5--8--|
--------------------------|--------------------------|
--0--0--------0--0--------|--5--5--------5--5--------|


  E  E  E  E  E  E  E  E     S S S S S S S S S S S S S S S S  
--------------------------|----------------------------------|
--------------------------|----------------------------------|
--------------------------|----------------------------------|
--------2--5--------2--5--|----------------------------------|
--0--0--------0--0--------|--1-1-1-1-1-1-1-1-1-1-1-1-1-1-1-1-|
--------------------------|----------------------------------|


  S S S S S S S S S S S S S S S S    S S S S S S S S S S S S S S S S  
----------------------------------|----------------------------------|
----------------------------------|----------------------------------|
----------------------------------|----------------------------------|
----------------------------------|----------------------------------|
--1-1-1-1-1-1-1-1-1-1-1-1-1-1-1-1-|----------------------------------|
----------------------------------|--5-5-5-5-5-5-5-5-5-5-5-5-5-5-5-5-|


  S S S S S S S S S S S S S S S S    Q    Q    Q    Q       W                 
----------------------------------|----------------------|-------------------
----------------------------------|----------------------|-------------------
----------------------------------|----------------------|-------------------
----------------------------------|----------------------|-------------------
--0-0-0-0-0-0-0-0-0-0-0-0-0-0-0-0-|--0-------------------|-------------------
----------------------------------|--0-------------------|-------------------


  E  E  E  E  E  E  E  E     H        H         
--------------------------|--------------------|
--------------------------|--------------------|
--------------------------|--------------------|
--8--L--L--L--L--L--L--L--|--5--------7--------|
--8--L--L--L--L--L--L--L--|--5--------7--------|
--8--L--L--L--L--L--L--L--|--5--------7--------|


  S S S S S S S S S S S S S S S S    S S S S S S S S S S S S S S S S  
----------------------------------|----------------------------------|
----------------------------------|----------------------------------|
----------------------------------|----------------------------------|
--------------------------8-8-8-8-|--7-7-7-7-5-5-5-5-----------------|
----------5-5-5-5-8-8-8-8---------|------------------8-8-8-8-7-7-7-7-|
--0-0-0-0-------------------------|----------------------------------|


          |--3--|          |--3--|             |--3--|          |--3--|   
  S S S S E  E  E  S S S S E  E  E     S S S S E  E  E  S S S S E  E  E   
------------------------------------|------------------------------------|
------------------------------------|------------------------------------|
------------------------------------|------------------------------------|
------------------------------------|------------------------------------|
----------5--7--5----------5--7--5--|----------5--8--5----------4--7--4--|
--8-8-8-8----------8-8-8-8----------|--5-5-5-5----------7-7-7-7----------|


  W                   W                   W                 
-------------------|-------------------|-------------------|
-------------------|-------------------|-------------------|
-------------------|-------------------|-------------------|
-------------------|-------------------|-------------------|
--0----------------|--L----------------|--8----------------|
--0----------------|--L----------------|--8----------------|


  H        H           W                   W                 
--------------------|-------------------|-------------------|
--------------------|-------------------|-------------------|
--------------------|-------------------|-------------------|
--------------------|-------------------|-------------------|
--5--------7--------|--0----------------|--L----------------|
--5--------7--------|--0----------------|--L----------------|


  W                   H        H           W                 
-------------------|--------------------|-------------------|
-------------------|--------------------|-------------------|
-------------------|--------------------|-------------------|
-------------------|--------------------|-------------------|
--8----------------|--5--------7--------|--0----------------|
--8----------------|--5--------7--------|--0----------------|


  W                   S S S S E  E  E  E  E  E     S S E  E  E  S S E  E  E   
-------------------|----------------------------|----------------------------
-------------------|----------------------------|----------------------------
-------------------|----------------------------|----------------------------
-------------------|----------------------------|----------------------------
--L----------------|--8-8-8---------------------|--5-5-5--------7-7-7--------
--L----------------|--8-8-8---------------------|--5-5-5--------7-7-7--------


  PM    PM PM    PM    PM    PM    PM PM    PM    PM  
  E  E  E  E  E  E  E  E     E  E  E  E  E  E  E  E   
--------------------------|--------------------------|
--------------------------|--------------------------|
--------------------------|--------------------------|
--------------------------|--------------------------|
-----5--------5-----5-----|-----5--------5-----5-----|
--0-----0--0-----0-----0--|--0-----0--0-----0-----0--|


  PM    PM PM    PM    PM    PM    PM PM    PM    PM  
  E  E  E  E  E  E  E  E     E  E  E  E  E  E  E  E   
--------------------------|--------------------------|
--------------------------|--------------------------|
--------------------------|--------------------------|
--------------------------|--------------------------|
-----5--------5-----5-----|-----8--------4-----4-----|
--8-----8--8-----8-----8--|--5-----5--7-----7-----7--|


  PM    PM PM    PM    PM    PM    PM PM    PM    PM  
  E  E  E  E  E  E  E  E     E  E  E  E  E  E  E  E   
--------------------------|--------------------------|
--------------------------|--------------------------|
--------------------------|--------------------------|
--------------------------|--------------------------|
-----5--------5-----5-----|-----5--------5-----5-----|
--0-----0--0-----0-----0--|--0-----0--0-----0-----0--|


  PM    PM PM    PM    PM    PM    PM PM    PM    PM                         
  E  E  E  E  E  E  E  E     E  E  E  E  E  E  E  E       Q    H.            
--------------------------|--------------------------||---------------------|
--------------------------|--------------------------||---------------------|
--------------------------|--------------------------||*--------------------|
--------------------------|--------------------------||*--------------------|
-----5--------5-----5-----|-----8--------4-----4-----||---0-----------------|
--8-----8--8-----8-----8--|--5-----5--7-----7-----7--||---0-----------------|


                       PM    PM PM    PM    PM    PM    PM PM    PM    PM    
  Q    H.              E  E  E  E  E  E  E  E     E  E  E  E  E  E  E  E     
--------------------|--------------------------|---------------------------||
--------------------|--------------------------|---------------------------||
--------------------|--------------------------|--------------------------*||
--------------------|--------------------------|--------------------------*||
--0-----------------|-----5--------5-----5-----|-----8--------4-----4------||
--0-----------------|--8-----8--8-----8-----8--|--5-----5--7-----7-----7---||


                                              PM PM    PM PM        
   |--3--|  |--3--|  |--3--|  |--3--|                               
   E  E  E  E  E  E  E  E  E  E  E  E      E  E  E  E  E  E  Q      
---------------------------------------|---------------------------|
---------------------------------------|---------------------------|
*--------------------------------------|---------------------------|
*--------------------------------------|--10--------8--------7\----|
------------5--5--5--7--7--7--8--8--8--|---------------------------|
---0--0--0-----------------------------|------0--0-----0--0--------|


  |--3--|  |--3--|  |--3--|  |--3--|     |--3--|  |--3--|  |--3--|  |--3--|     
  E  E  E  E  E  E  E  E  E  E  E  E     E  E  E  E  E  E  E  E  E  E  E  E     
--------------------------------------|--------------------------------------
--------------------------------------|--------------------------------------
--------------------------------------|--------------------------------------
--------------------------------------|--------------------------------------
-----------5--5--5--7--7--7--8--8--8--|-----------5--5--5--0--0--0--4--4--4--
--8--8--8-----------------------------|--8--8--8-----------------------------


  PM                                                                          
  E  E  H.              E  E  E  E  E  E  E  E     E  S E  S E  E  S S E  E   
---------------------|--------------------------|----------------------------
---------------------|--------------------------|----------------------------
---------------------|--------------------------|----------------------------
---------------------|--------------------------|----------------------------
--0------------------|--0-----------------------|-----0-0--0-0-----0-0-0-----
--0------------------|--0-----------------------|-----0-0--0-0-----0-0-0-----


  E  E  E  E  E  E  E  E     E  S E  S E  E  S S E  E   
--------------------------|----------------------------|
--------------------------|----------------------------|
--------------------------|----------------------------|
--------------------------|----------------------------|
--0-----------------------|-----0-0--0-0-----0-0-0-----|
--0-----------------------|-----0-0--0-0-----0-0-0-----|


  E  E  E  E  E  E  E  E     E  S E  S E  E  S S E  E   
--------------------------|----------------------------|
--------------------------|----------------------------|
--------------------------|----------------------------|
--------------------------|----------------------------|
--0-----------------------|-----0-0--0-0-----0-0-0-----|
--0-----------------------|-----0-0--0-0-----0-0-0-----|


  E  E  E  E  E  E  E  E     E  S E  S E  E  S S E  E   
--------------------------|----------------------------|
--------------------------|----------------------------|
--------------------------|----------------------------|
--------------------------|----------------------------|
--0-----------------------|-----0-0--0-0-----0-0-0-----|
--0-----------------------|-----0-0--0-0-----0-0-0-----|


  E  E  E  E  E  E  E  E     E  S E  S E  E  S S E  E   
--------------------------|----------------------------|
--------------------------|----------------------------|
--------------------------|----------------------------|
--------------------------|----------------------------|
--1-----------------------|-----1-1--1-1-----1-1-1-----|
--1-----------------------|-----1-1--1-1-----1-1-1-----|


  E  E  E  E  E  E  E  E     E  S E  S E  E  S S E  E   
--------------------------|----------------------------|
--------------------------|----------------------------|
--------------------------|----------------------------|
--------------------------|----------------------------|
--1-----------------------|-----1-1--1-1-----1-1-1-----|
--1-----------------------|-----1-1--1-1-----1-1-1-----|


  E  E  E  E  E  E  E  E     E  S E  S E  E  S S E  E   
--------------------------|----------------------------|
--------------------------|----------------------------|
--------------------------|----------------------------|
--------------------------|----------------------------|
--0-----------------------|-----0-0--0-0-----0-0-0-----|
--0-----------------------|-----0-0--0-0-----0-0-0-----|


  E  E  E  E  E  E  E  E     E  S E  S E  E  S S E  E   
--------------------------|----------------------------|
--------------------------|----------------------------|
--------------------------|----------------------------|
--------------------------|----------------------------|
--0-----------------------|-----0-0--0-0-----0-0-0-----|
--0-----------------------|-----0-0--0-0-----0-0-0-----|


  |--3--|  |--3--|  |--3--|  |--3--|     |--3--|  |--3--|  |--3--|           
  E  E  E  E  E  E  E  E  E  E  E  E     E  E  E  E  E  E  E  E  E    Q      
--------------------------------------|-------------------------------------|
--------------------------------------|-------------------------------------|
--------------------------------------|-------------------------------------|
--------------------4--------5--------|--8--------7--------5--------<>7~----|
-----------5--------------------------|-------------------------------------|
--0--0--0-----0--0-----0--0-----0--0--|-----0--0-----0--0-----0--0----------|


  |--3--|  |--3--|  |--3--|  |--3--|      |--3--|  |--3--|  |--3--|  |--3--|   
  E  E  E  E  E  E  E  E  E  E  E  E      E  E  E  E  E  E  E  E  E  E  E  E   
--------------------------------------|--------------------------------------
--------------------------------------|--------------------------------------
--------------------------------------|--10--7-----7--------9--6-----6-------
--------------------4--------5--L--L--|---------9-----9--6--------8-----8--5-
-----------5--------------------------|--------------------------------------
--0--0--0-----0--0-----0--0-----------|--------------------------------------


  |--3--|  |--3--|  |--3--|  |--3--|     |--3--|  |--3--|  |--3--|           
  E  E  E  E  E  E  E  E  E  E  E  E     E  E  E  E  E  E  E  E  E    Q      
--------------------------------------|-------------------------------------|
--------------------------------------|-------------------------------------|
--------------------------------------|-------------------------------------|
--------------------4--------5--------|--8--------7--------5--------<>7~----|
-----------5--------------------------|-------------------------------------|
--0--0--0-----0--0-----0--0-----0--0--|-----0--0-----0--0-----0--0----------|


  |--3--|  |--3--|  |--3--|  |--3--|      |--3--|  |--3--|  |--3--|  |--3--|   
  E  E  E  E  E  E  E  E  E  E  E  E      E  E  E  E  E  E  E  E  E  E  E  E   
--------------------------------------|--------------------------------------
--------------------------------------|--------------------------------------
--------------------------------------|--10--7-----7--------9--6-----6-------
--------------------4--------5--L--L--|---------9-----9--6--------8-----8--5-
-----------5--------------------------|--------------------------------------
--0--0--0-----0--0-----0--0-----------|--------------------------------------


  E  E  E  E  E  E  E  E          
--------------------------|-----||
--------------------------|-----||
--------------------------|-----||
--------------------------|-----||
--0-----------------------|-----||
--0-----------------------|-----||


















6. SLOW DANCE:

0:01 - 0:12       
 GTR 1   
|-------------------|
|-------------------|
|--10-/14--12-------| 
|--x--/x---x--------|
|--8--/12--10-------|
|--------------11---|\
                      \
 GTR 2                 
|------------------|   /
|------------------|  /
|--7--/10---9------| / 
|--x--/x----x------|
|--5--/8----7------|
|--------------8---| 

 0:13 - 0:24
 GTR 1
|----------------------------------------------------------------------|
|----------------------------------------------------------------------|
|----------------------------------------------------------------------| 
|---------------------------------------------------15-15-----11--11---|
|--8h12(x10)--12h15(x5)--10h13(x5)------------------x--x------x---x----|
|-----------------------------------11h14(x10)---0--12-12--0--8---8----|
                                                 *         *
                                                                both x2
 GTR 2
|----------------------------------------------------------------------|
|----------------------------------------------------------------------|
|----------------------------------------------------------------------| 
|----------------------------------------------------4-4-------1---1---|
|--5h8(x10)---8h12(x5)----7h10(x5)-------------------4-4-------1---1---|
|------------------------------------8h11(x10)---0---4-4----0--1---1---| 
                                                 *          *
 0:25 - 0:26
 GTR 1
|-------------------|
|-------------------|
|-------------------| 
|-------------------|
|-------------------|
|--0--(dive bomb)---| 

 0:27 - 0:39
 GTR 1
|------------------------------------------------------|
|------------------------------------------------------|
|------------------------------------------------------|
|------------------------------------------------------|
|---------------12-----11---8---8---8------------------|
|--0-0-0-12-0-0----0-0----0---0---0---0-0-0-11-12-14---|
   * * *    * *    * *    *   *   *   * * *

 GTR 2
|-----------------------------------------------------|
|-----------------------------------------------------|
|-----------------------------------------------------|
|--0-0-0----------------------------------------------|
|--0-0-0----------------------------------------------|
|--0-0-0------------------0-----------0-0-0-0-0-0-0---|
   * * *                  *           * * * * * * *   
                                                        \
                                                         both sections x2
 GTR 1                                                  /   
|------------------------------------------------|
|------------------------------------------------|
|------------------------------------------------|
|----------------------------15--15-----11--11---|
|---------------12-----11----x---x------x---x----|
|--0-0-0-12-0-0----0-0----0--12--12--0--8---8----|
   * * *    * *    * *    *          *

  GTR 2
|------------------------------------------------|
|------------------------------------------------|
|------------------------------------------------|
|-----------------------------4--4-------1---1---|
|-----------------------------4--4-------1---1---|
|--0-0-0------------------0---4--4---0---1---1---|
   * * *                  *          *

 0:40 - 0:52
 GTR 1
|-----------------------------------------------------------------------|
|-----------------------------------------------------------------------|
|----------------------------------------------------------------[10]---|
|--0-0-0-0-----0---------0-0-0-0-0-0-0-0----------15--15-----11---------|
|--0-0-0-0-----0---------0-0-0-0-0-0-0-0----------x---x------x----------|
|--0-0-0-0-----0---------0-0-0-0-0-0-0-0-------0--12--12--0--8----------|
   * * * *     *         * * * * * * * *       *          *
                                                                both x2
 GTR 2
|-----------------------------------------------------------------------|
|-----------------------------------------------------------------------|
|----------------------------------------------------------------[6]----|
|--0-0-0-0-----0---------0-0-0-0-0-0-0-0----------4---4-------1---------|
|--0-0-0-0-----0---------0-0-0-0-0-0-0-0----------4---4-------1---------|
|--0-0-0-0-----0---------0-0-0-0-0-0-0-0-------0--4---4---0---1---------|
   * * * *     *         * * * * * * * *       *          *

 0:53 - 0:56
 GTR 1
|----------------------------|
|----------------------------|
|----------------------------| 
|-0-0-0-0--------------------|
|-0-0-0-0--------------------|
|-0-0-0-0----0-(dive bomb)---| 
  * * * *

 0:57 - 1:16
 GTR 1
|-------------------------------------------------------------------------|
|-------------------------------------------------------------------------|
|------------------------------------------------------------------[10]---| 
|---------------------------------------------------15--15------11--------|
|--5h8(x10)---8h12(x5)----7h10(x5)------------------x---x-------x---------|
|------------------------------------8h11(x10)---0--12--12---0--8---------| 
                                                 *           *
                                                                both x2
 GTR 2                
|------------------------------------------------------------------------|
|------------------------------------------------------------------------|
|------------------------------------------------------------------[6]---|
|--0-0-0-0-----0---------0-0-0-0-0-0-0-0-------------4--4--------1-------|
|--0-0-0-0-----0---------0-0-0-0-0-0-0-0-------------4--4--------1-------|
|--0-0-0-0-----0---------0-0-0-0-0-0-0-0---------0---4--4----0---1-------|
   * * * *     *         * * * * * * * *         *           *


















7. LIQUOR & LOVE LOST:

PART A (INTRO)
|---------------------------------------------------------------------------|
|---------------------------------------------------------------------------|
|---------------------------------------------------------------------------|
|-0~--------0~--------------------------------------------------------------|
|-0~--------0~--------888888888-77777777-4444444----------------------------|
|-0~--------0~--------------------------------------------------------------|

PART B
|---------------------------------------------------------------------------|
|---------------------------------------------------------------------------|
|---------------------------------------------------------------------------|
|---------------------------------------------------------------------------|
|------10101010-8888-7777-8888-7777-5555-4444-5555-4444---------------------|
|-0000--------------------------------------------------8888-7777-8888-7777-|

|------------|
|------------|
|------------|   x2
|------------|
|------------|
|-5555-3333--|

PART C
|------------------------------------------------------------------|
|------------------------------------------------------------------|
|------------------------------------------------------------------|  x2
|------------------------------------------------------------------|
|----10---8---7---8---7---5---4---5---4----------------------------|
|-00----0---0---0---0---0---0---0---0---0-8-0-7-0-8-0-7-0-5-0-3*---|

PART D
|-------------------------------------------------------------------|
|-------------------------------------------------------------------|
|------10h13h10-----9h12h9-----7*-----------------------------------| x4
|-------------------------------------------------------------------|
|-0-0-----------0-0--------0-0---------7---8---10---8---7---5---4*--|
|-0-0-----------0-0--------0-0-----0-0---0---0----0---0---0---0-----|


NOW PLAY PART C AGAIN ONCE
THEN PART B AGAIN ONCE

PART E (PLAYED UNDER SOLO)
|---------------------------------------------------------------------------|
|---------------------------------------------------------------------------|
|---------------------------------------------------------------------------|
|0~--------8~--------5--------6--------7--------8----------5---------6------|
|0~--------8~--------5--------4--------5--------8----------5---------4------|
|0~--------8~--------5--------------------------8----------5----------------|

|------------------------------------------------------------|
|------------------------------------------------------------|
|------------------------------------------------------------| X 2
|-7-777-777-777------------------------------6-666-666-666---|
|-5-555-555-555--8-888-888-888-5-555-555-555-4-444-444-444---|
|----------------8-888-888-888-5-555-555-555-----------------|

|-------------------------------------------------------------------|
|-------------------------------------------------------------------|
|-------------------------------------------------------------------|
|-------------------------------------------------------------------|
|------5555-7777-8888-------10101010-8888-7777-------5555-7777-8888-|
|-0000-----------------8888---------------------5555----------------|

|-------------------------------------|
|-------------------------------------|
|--------------------------------9*---| X2
|-------------------------------------|
|-------------12121212-10101010-------|
|-11-11-11-11-------------------------|

|------------------------------------------------------------------
|------------------------------------------------------------------|
|------------------------------------------------------------------| X3
|------------3-----------3---4-----------3------------3---4---5----|
|-0-4-3-1--5---0-4-3-1-5---6---0-4-3-1-5---0-4-3-1--5---6---7------|
|-0-4-3-1------0-4-3-1---------0-4-3-1-----0-4-3-1-----------------|

|--------------------------------------------------------------------|
|--------------------------------------------------------------------|
|--------------------------------------------------------------------|
|------------3-----------3---4-----------3------------3---4---5---6--|
|-0-4-3-1--5---0-4-3-1-5---6---0-4-3-1-5---0-4-3-1--5---6---7---8----|
|-0-4-3-1------0-4-3-1---------0-4-3-1-----0-4-3-1-------------------|

|------------------------------------------------------------------
|------------------------------------------------------------------|
|----------3*------------3*-4*----------3*----------3*-4*-5*-------| X3
|------------------------------------------------------------------|
|-0-4-3-1------0-4-3-1---------0-4-3-1-----0-4-3-1-----------------|
|-0-4-3-1------0-4-3-1---------0-4-3-1-----0-4-3-1-----------------|

|--------------------------------------------------------------------|
|--------------------------------------------------------------------|
|----------3*------------3*-4*---------3*-----------3*-4*-5*-6*------|
|--------------------------------------------------------------------|
|-0-4-3-1------0-4-3-1---------0-4-3-1-----0-4-3-1-------------------|
|-0-4-3-1------0-4-3-1---------0-4-3-1-----0-4-3-1-------------------|


















8. (I USED TO MAKE OUT WITH) MEDUSA:


Intro
    Q=194
   4/4
    Gtr I
    PM--------|           PM--|     PM--|         PM--------|
    S S e S S e E E E E   S S e E E S S e  E  E   S S e S S e E E E E
||----------------------|-----------------------|----------------------|
||o---------------------|-----------------------|----------------------|
||--------------2p0-----|-----------------------|-------------2p0------|
||------------------3p2-|------------------3p=2-|-----------------3p2--|
||o---------------------|-------4h5-------------|----------------------|
||--0-0-0-0-0-0---------|-0-0-0-----0-0-0-------|-0-0-0-0-0-0----------|
|
|   Gtr II
|   PM--------|           PM--|     PM--|         PM--------|
|   S S e S S e E E E E   S S e E E S S e  E  E   S S e S S e E E E E
||----------------------|-----------------------|----------------------|
||o---------------------|-----------------------|----------------------|
||--------------5-------|-----------------------|-------------5--------|
||----------------8p7p5-|-----------------10----|---------------8p7p5--|
||o---------------------|-------7h8----------10-|----------------------|
||--0-0-0-0-0-0---------|-0-0-0-----0-0-0-------|-0-0-0-0-0-0----------|


  PM|               PM--------|           PM--|     PM--|
  E E E E E E E E   S S e S S e E E E E   S S e E E S S e  E  E
|-----------------|---------------------|-----------------------|
|-----------------|---------------------|-----------------------|
|-----------------|-------------2p0-----|-----------------------|
|-----0h3-----2s5-|-----------------3p2-|------------------3p=2-|
|---0-----0h1-----|---------------------|-------4h5-------------|
|-0---------------|-0-0-0-0-0-0---------|-0-0-0-----0-0-0-------|
|
| PM|               PM--------|           PM--|     PM--|
| E E E E E E E E   S S e S S e E E E E   S S e E E S S e  E  E
|-----------------|---------------------|-----------------------|
|-----------------|---------------------|-----------------------|
|-----------------|-------------5-------|-----------------------|
|-----0h3-----2---|---------------8p7p5-|-----------------10----|
|---0-----0h1---3-|---------------------|-------7h8----------10-|
|-0---------------|-0-0-0-0-0-0---------|-0-0-0-----0-0-0-------|


  PM--------|           PM
  S S e S S e E E E E   E E E E E E E E
|---------------------|------------------||
|---------------------|-----------------o||
|-------------2p0-----|------------------||
|-----------------3p2-|-------7-----7s5--||
|---------------------|-5-7h8---7h8-----o||
|-0-0-0-0-0-0---------|------------------||
|
| PM--------|           PM
| S S e S S e E E E E   E E E E E E E E
|---------------------|------------------||
|---------------------|-----------------o||
|-------------5-------|------------------||
|---------------8p7p5-|-------7-----7s8--||
|---------------------|---7h8---7h8-----o||
|-0-0-0-0-0-0---------|-8----------------||


 Pre-Verse
  PM--------|                PM--|       PM--|         PM--------|
  S S e S S e   E  E  E  E   S S e  E  E S S e  E  E   S S e S S e  E  E  E  E
|--------------------------|-------------------------|-------------------------|
|--------------------------|-------------------------|-------------------------|
|---------------2p=0-------|-------------------------|--------------2p=0-------|
|---------------------3p=2-|--------------------3p=2-|--------------------3p=2-|
|--------------------------|--------4h=5-------------|-------------------------|
|-0-0-0-0-0-0--------------|-0-0-0-------0-0-0-------|-0-0-0-0-0-0-------------|
|
| PM--------|                PM--|       PM--|         PM--------|
| S S e S S e   E  E  E  E   S S e  E  E S S e  E  E   S S e S S e  E  E  E  E
|--------------------------|-------------------------|-------------------------|
|-------------/13----------|-------------------------|-------------13----------|
|-----------------15p14p12-|-------------------17----|----------------15p14p12-|
|--------------------------|-------15h17----------17-|-------------------------|
|--------------------------|-------------------------|-------------------------|
|-0-0-0-0-0-0--------------|-0-0-0-------0-0-0-------|-0-0-0-0-0-0-------------|


  PM|               PM--------|                PM--|       PM--|
  E E E E E E E E   S S e S S e   E  E  E  E   S S e  E  E S S e  E  E
|-----------------|--------------------------|-------------------------|
|-----------------|--------------------------|-------------------------|
|-----------------|---------------2p=0-------|-------------------------|
|-----0h3-----2s5-|---------------------3p=2-|--------------------3p=2-|
|---0-----0h1-----|--------------------------|--------4h=5-------------|
|-0---------------|-0-0-0-0-0-0--------------|-0-0-0-------0-0-0-------|
|
| PM|               PM--------|                PM--|       PM--|
| E E E E E E E E   S S e S S e   E  E  E  E   S S e  E  E S S e  E  E
|-----------------|--------------------------|-------------------------|
|-----------------|-------------/13----------|-------------------------|
|-----------------|-----------------15p14p12-|-------------------17----|
|-----0h3-----2---|--------------------------|-------15h17----------17-|
|---0-----0h1---3-|--------------------------|-------------------------|
|-0---------------|-0-0-0-0-0-0--------------|-0-0-0-------0-0-0-------|


  PM--------|               PM
  S S e S S e  E  E  E  E   E E E E E E E E
|-------------------------|-----------------||
|-------------------------|-----------------||
|--------------2p=0-------|-----------------||
|--------------------3p=2-|-------7-----7s5-||
|-------------------------|-5-7h8---7h8-----||
|-0-0-0-0-0-0-------------|-----------------||
|
| PM--------|               PM
| S S e S S e  E  E  E  E   E E E E E E E E
|-------------------------|-----------------||
|-------------13----------|-----------------||
|----------------15p14p12-|-----------------||
|-------------------------|-------7-----7s8-||
|-------------------------|---7h8---7h8-----||
|-0-0-0-0-0-0-------------|-8---------------||


   Verse
    Gtr I
    PM--|        PM------------------------|
    S S E E E q  E E   S S E E S S E E S S E
||-------------------|-----------------------|
||o------------------|-----------------------|
||-------------------|-----------------------|
||-------------------|-----------------------|
||o-------6p3-5------|-----------------------|
||--0-0-0--------0-0-|-0-0-0-0-0-0-0-0-0-0-0-|
|
|   PM--|        PM------------------------|
|   S S E E E q  E E   S S E E S S E E S S E
||-------------------|-----------------------|
||o------------------|-----------------------|
||-------------------|-----------------------|
||-------------------|-----------------------|
||o-------6p3-5------|-----------------------|
||--0-0-0--------0-0-|-0-0-0-0-0-0-0-0-0-0-0-|


  PM--|        PM--|
  S S E E E q  S E S    E  E  E  E  E  E  E  E
|--------------------|--------------------------||
|--------------------|-------------------------o||
|--------------------|-------------------12h14--||
|--------------------|----------13p12-13--------||
|-------6p3-5--------|----12h15----------------o||
|-0-0-0--------0-0-0-|-13-----------------------||
|
| PM--|        PM--|
| S S E E E q  S E S    E  E  E  E  E  E  E  E
|--------------------|--------------------------||
|--------------------|-------------------------o||
|--------------------|--------------------------||
|--------------------|----------13----------17--||
|-------6p3-5--------|----12h15-------15h18----o||
|-0-0-0--------0-0-0-|-13----------17-----------||


    Gtrs I, II
    PM--------|            PM--------|
    S S E S S E  E E  q    S S E S S E  E  E  q
||-----------------------|-----------------------|
||o----------------------|-----------------------|
||-----------------------|-----------------------|
||-----------------------|-------------13p11-----|
||o-------------12p9-11--|-------------------12--|
||--0-0-0-0-0-0----------|-0-0-0-0-0-0-----------|


  PM--------|                                  ~~
  S S E S S E  E  E  E  E    E  E  E  E  E  E  Q
|-------------------------|-------------------13-----||
|-------------------------|----------------15-------o||
|-------------------------|----------12h14-----------||
|-------------12p11-------|----12h14-----------------||
|-------------------11h12h|=13----------------------o||
|-0-0-0-0-0-0-------------|--------------------------||


   Prelude
    PM--------|      PM------|     PM|       PM--------|      PM|
    S S E S S E E q  S S   e E E E E E E E   S S E S S E E q  S S
||-----------------------|-----------------|----------------------|
||o----------------------|-----------------|----------------------|
||--------------8S7------|-----------------|-------------8S7------|
||--------------x-x------|-----------------|-------------x-x------|
||o-------------6S5------|-----6p5-----3h5-|-------------6S5------|
||--0-0-0-0-0-0------0-0-|-x-0-----0-x-----|-0-0-0-0-0-0------0-0-|


 3/4
  PM------------|          PM------------|
  |-3-|   |-3-|            |-3-|   |-3-|
  S S S E S S S E  Q       S S S E S S S E  Q
|------------------------|-------------------------||
|------------------------|------------------------o||
|-----------------[5]b7--|-----------------[5]b7---||
|------------------------|-------------------------||
|------------------------|------------------------o||
|-6-6-6-6-5-5-5-5--------|-6-6-6-6-5-5-5-5---------||


  PM------------|          PM------------|          PM------------|
  |-3-|   |-3-|            |-3-|   |-3-|            |-3-|   |-3-|
  S S S E S S S E  Q       S S S E S S S E  Q       S S S E S S S E  Q
|------------------------|------------------------|------------------------|
|------------------------|------------------------|------------------------|
|-----------------[5]b7--|-----------------[3]b4--|-----------------[2]b4--|
|------------------------|------------------------|------------------------|
|------------------------|------------------------|------------------------|
|-6-6-6-6-5-5-5-5--------|-5-5-5-5-3-3-3-3--------|-3-3-3-3-2-2-2-2--------|


  PM------------|          PM------------|
  |-3-|   |-3-|            |-3-|   |-3-|
  S S S E S S S E  Q       S S S E S S S E  Q
|------------------------|------------------------||
|------------------------|------------------------||
|-----------------[2]b4--|-----------------[1]b3--||
|------------------------|------------------------||
|------------------------|------------------------||
|-2-2-2-2-0-0-0-0--------|-2-2-2-2-0-0-0-0--------||


 Breakdown
  Q=144
  B5EbD5C5    B5B5                         B5EbD5C5    B5B5
 4/4
  Gtrs I, II
  E E E E +S  S q.     S S E Q  S S E Q    E E E E +S  S q.
|--------------------|-------------------|---------------------|
|--------------------|-------------------|---------------------|
|--------------------|-------------------|---------------------|
|-0-4-3-1-(1)p0-0----|-------------------|-0-4-3-1-(1)p0-0-----|
|-0-4-3-1-(1)-0-0----|-x-x-x----x-x-x----|-0-4-3-1-(1)-0-0-----|
|-0-4-3-1-(1)p0-0----|-x-x-x----x-x-x----|-0-4-3-1-(1)p0-0-----|


                             B5EbD5C5    B5B5              B5
        PM--|       PM--|                                  PM------|
  E. E. T T S  E    S S q    E E E E +S  S q.     S S E Q  S S E E E
|--------------------------|--------------------|---------------------|
|--------------------------|--------------------|---------------------|
|-------------[5]b7--------|--------------------|---------------------|
|--------------------------|-0-4-3-1-(1)p0-0----|---------------------|
|-x--x---------------------|-0-4-3-1-(1)-0-0----|-x-x-x----0-0-0-0-0--|
|-x--x--0-0-0-------0-0-0--|-0-4-3-1-(1)p0-0----|-x-x-x----0-0-0-0-0--|


  B5EbD5C5    B5B5                                B5EbD5C5    B5B5
                             PM--|       PM--|
  E E E E +S  S q.     E. E. T T S  E    S S q    E E E E +S  S q.
|--------------------|--------------------------|--------------------|
|--------------------|--------------------------|--------------------|
|--------------------|-------------[5]b7--------|--------------------|
|-0-4-3-1-(1)p0-0----|--------------------------|-0-4-3-1-(1)p0-0----|
|-0-4-3-1-(1)-0-0----|-x--x---------------------|-0-4-3-1-(1)-0-0----|
|-0-4-3-1-(1)p0-0----|-x--x--0-0-0-------0-0-0--|-0-4-3-1-(1)p0-0----|


                                               1.
                                               B5EbD5C5    B5B5
    Gtr I
    S  S S  S S  S S  S   S S  S S  S S  S S   E E E E +S  S q.
||-------------------------------------------|--------------------|
||o------------------------------------------|--------------------|
||--6h10-6h10-6h10-6h10-----9----9----9----9-|--------------------|
||-----------------------10---10---10---10---|-0-4-3-1-(1)p0-0----|
||o------------------------------------------|-0-4-3-1-(1)-0-0----|
||-------------------------------------------|-0-4-3-1-(1)p0-0----|
|
|   Gtr II
|   S  S S  S S  S S  S   S S  S S  S S  S S   E E E E +S  S q.
||-------------------------------------------|--------------------|
||o------------------------------------------|--------------------|
||--3h=6-3h=6-3h=6-3h=6\--2h5--2h5--2h5--2h5-|--------------------|
||-------------------------------------------|-0-4-3-1-(1)p0-0----|
||o------------------------------------------|-0-4-3-1-(1)-0-0----|
||-------------------------------------------|-0-4-3-1-(1)p0-0----|


                             B5EbD5C5    B5B5              B5
        PM--|       PM--|                                  PM------|
  E. E. T T S  E    S S q    E E E E +S  S q.     S S E Q  S S E E E
|--------------------------|--------------------|---------------------|
|--------------------------|--------------------|---------------------|
|-------------[5]b7--------|--------------------|---------------------|
|--------------------------|-0-4-3-1-(1)p0-0----|---------------------|
|-x--x---------------------|-0-4-3-1-(1)-0-0----|-x-x-x----0-0-0-0-0--|
|-x--x--0-0-0-------0-0-0--|-0-4-3-1-(1)p0-0----|-x-x-x----0-0-0-0-0--|
|
|       PM--|       PM--|                                  PM------|
| E. E. S   S  E    S S q    E E E E +S  S q.     S S E Q  S S E E E
|--------------------------|--------------------|---------------------|
|--------------------------|--------------------|---------------------|
|-------------[3]b5--------|--------------------|---------------------|
|--------------------------|-0-4-3-1-(1)p0-0----|---------------------|
|-x--x---------------------|-0-4-3-1-(1)-0-0----|-x-x-x----0-0-0-0-0--|
|-x--x--0---0-------0-0-0--|-0-4-3-1-(1)p0-0----|-x-x-x----0-0-0-0-0--|


  B5EbD5C5    B5B5                                B5EbD5C5    B5B5
                             PM--|       PM--|
  E E E E +S  S q.     E. E. T T S  E    S S q    E E E E +S  S q.
|--------------------|--------------------------|---------------------||
|--------------------|--------------------------|--------------------o||
|--------------------|-------------[5]b7--------|---------------------||
|-0-4-3-1-(1)p0-0----|--------------------------|-0-4-3-1-(1)p0-0-----||
|-0-4-3-1-(1)-0-0----|-x--x---------------------|-0-4-3-1-(1)-0-0----o||
|-0-4-3-1-(1)p0-0----|-x--x--0-0-0-------0-0-0--|-0-4-3-1-(1)p0-0-----||
|
|                            PM--|       PM--|
| E E E E +S  S q.     E. E. T T S  E    S S q    E E E E +S  S q.
|--------------------|--------------------------|---------------------||
|--------------------|--------------------------|--------------------o||
|--------------------|-------------[3]b5--------|---------------------||
|-0-4-3-1-(1)p0-0----|--------------------------|-0-4-3-1-(1)p0-0-----||
|-0-4-3-1-(1)-0-0----|-x--x---------------------|-0-4-3-1-(1)-0-0----o||
|-0-4-3-1-(1)p0-0----|-x--x--0-0-0-------0-0-0--|-0-4-3-1-(1)p0-0-----||


  2.
                         B5EbD5C5    B5B5              B5
                PM--|                                  PM------|
  E. E. E  E    S S q    E E E E +S  S q.     S S E Q  S S E E E
|----------------------|--------------------|--------------------|
|----------------------|--------------------|--------------------|
|---------[5]b7--------|--------------------|--------------------|
|----------------------|-0-4-3-1-(1)p0-0----|--------------------|
|-x--x--x--------------|-0-4-3-1-(1)-0-0----|-x-x-x----0-0-0-0-0-|
|-x--x--x-------0-0-0--|-0-4-3-1-(1)p0-0----|-x-x-x----0-0-0-0-0-|
|
|               PM--|                                  PM------|
| E. E. E  E    S S q    E E E E +S  S q.     S S E Q  S S E E E
|----------------------|--------------------|--------------------|
|----------------------|--------------------|--------------------|
|---------[3]b5--------|--------------------|--------------------|
|----------------------|-0-4-3-1-(1)p0-0----|--------------------|
|-x--x--x--------------|-0-4-3-1-(1)-0-0----|-x-x-x----0-0-0-0-0-|
|-x--x--x-------0-0-0--|-0-4-3-1-(1)p0-0----|-x-x-x----0-0-0-0-0-|


           B5                                 B5EbD5C5    B5B5
           PM------|                 PM--|
  S S E Q  S S E E E   E. E. E  E    S S q    E E E E +S  S q.
|--------------------|----------------------|--------------------|
|--------------------|----------------------|--------------------|
|--------------------|---------[5]b7--------|--------------------|
|--------------------|----------------------|-0-4-3-1-(1)p0-0----|
|-x-x-x----0-0-0-0-0-|-x--x--x--------------|-0-4-3-1-(1)-0-0----|
|-x-x-x----0-0-0-0-0-|-x--x--x-------0-0-0--|-0-4-3-1-(1)p0-0----|
|
|          PM------|                 PM--|
| S S E Q  S S E E E   E. E. E  E    S S q    E E E E +S  S q.
|--------------------|----------------------|--------------------|
|--------------------|----------------------|--------------------|
|--------------------|---------[3]b5--------|--------------------|
|--------------------|----------------------|-0-4-3-1-(1)p0-0----|
|-x-x-x----0-0-0-0-0-|-x--x--x--------------|-0-4-3-1-(1)-0-0----|
|-x-x-x----0-0-0-0-0-|-x--x--x-------0-0-0--|-0-4-3-1-(1)p0-0----|


  S  S S  S S  S S  S   S S  S S  S S  S S
|------------------------------------------|
|------------------------------------------|
|-6h10-6h10-6h10-6h10-----9----9----9----9-|
|----------------------10---10---10---10---|
|------------------------------------------|
|------------------------------------------|
|
| S  S S  S S  S S  S   S S  S S  S S  S S
|------------------------------------------|
|------------------------------------------|
|-3h=6-3h=6-3h=6-3h=6\--2h5--2h5--2h5--2h5-|
|------------------------------------------|
|------------------------------------------|
|------------------------------------------|


                      1.,2.,3.
    B5EbD5C5G5B5EbD5  B5 Eb5  D5C5    B5    G5  B5F#5
    E E E E E E E E   E  E    E E      E    E   E E  4x
||------------------|--------------------------------||
||o-----------------|-------------------------------o||
||----------3-------|-----------------------3-----2--||
||--0-4-3-1-3-0-4-3-|-0--4----3-1------0----3-----2--||
||o-0-4-3-1-1-0-4-3-|-0--4----3-1------0----1---0-0-o||
||--0-4-3-1---0-4-3-|-0--4----3-1------0--------0----||
|
|                               PM--|       PM--|
|   E E E E q   Q     E.   E.   T T S  E    S S q    4x
||------------------|--------------------------------||
||o-----------------|-------------------------------o||
||------------------|-----------------[5]b7----------||
||------------------|--------------------------------||
||o-0-4-3-1-0---x---|-x----x------------------------o||
||--0-4-3-1-0---x---|-x----x----0-0-0-------0-0-0----||


  4.
  B5EbD5C5G5      C5  B
  E E E E Q   +E  E   S S S S S S S S S S S S S S S S
|-------------------|---------------------------------|
|-------------------|---------------------------------|
|---------3---(3)s8-|---------------------------------|
|-0-4-3-1-3---(3)s8-|---------------------------------|
|-0-4-3-1-1---(1)s6-|-----------------1-1-------------|
|-0-4-3-1-----------|-0-0-4-4-3-3-1-1-----0-0-4-4-3-3-|
|
| H       E E  q      W
|-------------------|---------------------------------|
|-------------------|---------------------------------|
|-------------------|-7-------------------------------|
|-x-----------------|-x-------------------------------|
|-x-------0-0--0----|-5-------------------------------|
|-x-------0-0--0----|---------------------------------|


                    B       C
   S  S S S S S S S S S S S S S S S
|-------------------------------------|
|-------------------------------------|
|-------------------------------------|
|-------------------------------------|
|-------------------1-1-1-1-0-0-0-0---|
|--0--0-4-4-3-3-1-1-------------------|
|
| +H                Q       Q
|-------------------------------------|
|-------------------------------------|
|-(7)---------------7-------8---------|
|-------------------x-------x---------|
|-(5)---------------5-------6---------|
|-------------------------------------|


  A
  S S S S S S S S S S S S S S S S    S  S S S S S S S S S S S S S S S
|---------------------------------|-----------------------------------|
|---------------------------------|-----------------------------------|
|---------------------------------|-----------------------------------|
|---------------------------------|-----------------------------------|
|-----------------1-1-------------|-------------------1-1-1-1-0-0-0-0-|
|-0-0-4-4-3-3-1-1-----0-0-4-4-3-3-|--0--0-4-4-3-3-1-1-----------------|
|
| W                                 +W
|---------------------------------|-----------------------------------|
|---------------------------------|-----------------------------------|
|-5-------------------------------|-(5)-------------------------------|
|-x-------------------------------|-----------------------------------|
|-3-------------------------------|-(3)-------------------------------|
|---------------------------------|-----------------------------------|


  B                                                   E        Eb
  S S S S S S S S S S S S S S S S    S  S S S S S S S  S S S S  S S S S
|---------------------------------|-------------------------------------|
|---------------------------------|-------------------------------------|
|---------------------------------|-------------------------------------|
|---------------------------------|-------------------------------------|
|-----------------1-1-------------|--------------------1-1-1-1--0-0-0-0-|
|-0-0-4-4-3-3-1-1-----0-0-4-4-3-3-|--0--0-4-4-3-3-1-1-------------------|
|
| W                                 +H                 Q        Q
|---------------------------------|-------------------------------------|
|---------------------------------|-------------------------------------|
|-7-------------------------------|-(7)---------------12-------11-------|
|-x-------------------------------|--------------------x--------x-------|
|-5-------------------------------|-(5)---------------10--------9-------|
|---------------------------------|-------------------------------------|


  A
  S S S S S S S S S S S S S S S S    S  S S S S S S S S S S S S S S S
|---------------------------------|-----------------------------------|
|---------------------------------|-----------------------------------|
|---------------------------------|-----------------------------------|
|---------------------------------|-----------------------------------|
|-----------------1-1-------------|-------------------1-1-1-1-0-0-0-0-|
|-0-0-4-4-3-3-1-1-----0-0-4-4-3-3-|--0--0-4-4-3-3-1-1-----------------|
|
|                                    ~~~
| W                                  W
|---------------------------------|-----------------------------------|
|---------------------------------|-----------------------------------|
|-5-------------------------------|-[5]-------------------------------|
|-x-------------------------------|-----------------------------------|
|-3-------------------------------|-----------------------------------|
|---------------------------------|-----------------------------------|


  B5EbD5C5    B5B5                                B5EbD5C5    B5B5
                             PM--|       PM--|
  E E E E +S  S q.     E. E. T T S  E    S S q    E E E E +S  S q.
|--------------------|--------------------------|--------------------|
|--------------------|--------------------------|--------------------|
|--------------------|-------------[5]b7--------|--------------------|
|-0-4-3-1-(1)p0-0----|--------------------------|-0-4-3-1-(1)p0-0----|
|-0-4-3-1-(1)-0-0----|-x--x---------------------|-0-4-3-1-(1)-0-0----|
|-0-4-3-1-(1)p0-0----|-x--x--0-0-0-------0-0-0--|-0-4-3-1-(1)p0-0----|
|
|                            PM--|       PM--|
| E E E E +S  S q.     E. E. T T S  E    S S q    E E E E +S  S q.
|--------------------|--------------------------|--------------------|
|--------------------|--------------------------|--------------------|
|--------------------|-------------[3]b5--------|--------------------|
|-0-4-3-1-(1)p0-0----|--------------------------|-0-4-3-1-(1)p0-0----|
|-0-4-3-1-(1)-0-0----|-x--x---------------------|-0-4-3-1-(1)-0-0----|
|-0-4-3-1-(1)p0-0----|-x--x--0-0-0-------0-0-0--|-0-4-3-1-(1)p0-0----|


           B5          B5EbD5C5    B5B5
           PM------|                              PM--|       PM--|
  S S E Q  S S E E E   E E E E +S  S q.     E. E. T T S  E    S S q
|--------------------|--------------------|---------------------------|
|--------------------|--------------------|---------------------------|
|--------------------|--------------------|-------------[5]b7---------|
|--------------------|-0-4-3-1-(1)p0-0----|---------------------------|
|-x-x-x----0-0-0-0-0-|-0-4-3-1-(1)-0-0----|-x--x----------------------|
|-x-x-x----0-0-0-0-0-|-0-4-3-1-(1)p0-0----|-x--x--0-0-0-------0-0-0---|
|
|          PM------|                              PM--|       PM--|
| S S E Q  S S E E E   E E E E +S  S q.     E. E. T T S  E    S S q
|--------------------|--------------------|---------------------------|
|--------------------|--------------------|---------------------------|
|--------------------|--------------------|-------------[3]b5---------|
|--------------------|-0-4-3-1-(1)p0-0----|---------------------------|
|-x-x-x----0-0-0-0-0-|-0-4-3-1-(1)-0-0----|-x--x----------------------|
|-x-x-x----0-0-0-0-0-|-0-4-3-1-(1)p0-0----|-x--x--0-0-0-------0-0-0---|


  B5EbD5C5    B5B5
  E E E E +S  S q.     S  S S  S S  S S  S   S S  S S  S S  S S
|--------------------|------------------------------------------||
|--------------------|------------------------------------------||
|--------------------|-6h10-6h10-6h10-6h10-----9----9----9----9-||
|-0-4-3-1-(1)p0-0----|----------------------10---10---10---10---||
|-0-4-3-1-(1)-0-0----|------------------------------------------||
|-0-4-3-1-(1)p0-0----|------------------------------------------||
|
| E E E E +S  S q.     S  S S  S S  S S  S   S S  S S  S S  S S
|--------------------|------------------------------------------||
|--------------------|------------------------------------------||
|--------------------|-3h=6-3h=6-3h=6-3h=6\--2h5--2h5--2h5--2h5-||
|-0-4-3-1-(1)p0-0----|------------------------------------------||
|-0-4-3-1-(1)-0-0----|------------------------------------------||
|-0-4-3-1-(1)p0-0----|------------------------------------------||


 Pre-Chorus
  G5
  Gtr III
             ~~~               ~~~
   E   E  E  Q.    E  E    E   Q.    E  E  E  E
|-17--------------17----|-----------17----------|
|-----18-------------18-|--------------18-------|
|--------19-------------|-19--------------19----|
|-----------19----------|-----19-------------19-|
|-----------------------|-----------------------|
|-----------------------|-----------------------|
|
| Gtrs I, II
|  H.              Q      +W
|-----------------------|-----------------------|
|-----------------------|-----------------------|
|--3---------------3----|-(3)-------------------|
|--3---------------3----|-(3)-------------------|
|--1---------------1----|-(1)-------------------|
|-----------------------|-----------------------|


  A5                     A5
            ~~~              ~~~
   E  E  E  Q.    E  E    E  Q.    E  E  E  E
|-17-------------17----|----------17----------||
|----18-------------18-|-------------18-------||
|-------19-------------|-19-------------19----||
|----------19----------|----19-------------19-||
|----------------------|----------------------||
|----------------------|----------------------||
|
|  W                      W
|----------------------|----------------------||
|----------------------|----------------------||
|--5-------------------|--5-------------------||
|--5-------------------|--5-------------------||
|--3-------------------|--3-------------------||
|----------------------|----------------------||


 Chorus
  Q=194
  Gtr I
  PM--------|           PM--|     PM--|         PM--------|
  S S e S S e E E E E   S S e E E S S e  E  E   S S e S S e E E E E
|---------------------|-----------------------|---------------------|
|---------------------|-----------------------|---------------------|
|-------------2p0-----|-----------------------|-------------2p0-----|
|-----------------3p2-|------------------3p=2-|-----------------3p2-|
|---------------------|-------4h5-------------|---------------------|
|-0-0-0-0-0-0---------|-0-0-0-----0-0-0-------|-0-0-0-0-0-0---------|
|
| Gtr II
| PM--------|           PM--|     PM--|         PM--------|
| S S e S S e E E E E   S S e E E S S e  E  E   S S e S S e E E E E
|---------------------|-----------------------|---------------------|
|---------------------|-----------------------|---------------------|
|-------------5-------|-----------------------|-------------5-------|
|---------------8p7p5-|-----------------10----|---------------8p7p5-|
|---------------------|-------7h8----------10-|---------------------|
|-0-0-0-0-0-0---------|-0-0-0-----0-0-0-------|-0-0-0-0-0-0---------|


  PM|               PM--------|           PM--|     PM--|
  E E E E E E E E   S S e S S e E E E E   S S e E E S S e  E  E
|-----------------|---------------------|-----------------------|
|-----------------|---------------------|-----------------------|
|-----------------|-------------2p0-----|-----------------------|
|-----0h3-----2s5-|-----------------3p2-|------------------3p=2-|
|---0-----0h1-----|---------------------|-------4h5-------------|
|-0---------------|-0-0-0-0-0-0---------|-0-0-0-----0-0-0-------|
|
| PM|               PM--------|           PM--|     PM--|
| E E E E E E E E   S S e S S e E E E E   S S e E E S S e  E  E
|-----------------|---------------------|-----------------------|
|-----------------|---------------------|-----------------------|
|-----------------|-------------5-------|-----------------------|
|-----0h3-----2---|---------------8p7p5-|-----------------10----|
|---0-----0h1---3-|---------------------|-------7h8----------10-|
|-0---------------|-0-0-0-0-0-0---------|-0-0-0-----0-0-0-------|


  PM--------|           PM
  S S e S S e E E E E   E E E E E E E E
|---------------------|-----------------||
|---------------------|-----------------||
|-------------2p0-----|-----------------||
|-----------------3p2-|-------7-----7s5-||
|---------------------|-5-7h8---7h8-----||
|-0-0-0-0-0-0---------|-----------------||
|
| PM--------|           PM
| S S e S S e E E E E   E E E E E E E E
|---------------------|-----------------||
|---------------------|-----------------||
|-------------5-------|-----------------||
|---------------8p7p5-|-------7-----7s8-||
|---------------------|---7h8---7h8-----||
|-0-0-0-0-0-0---------|-8---------------||


   Pre-Solo
    S S S S S S S S S S S S S S S S   S S S S S S S S  S  S  S  S  S  S  S  S
||----------------------------------|------------------------------------------|
||o---------------------------------|------------------------------------------|
||----------------------------------|------------------------------------------|
||----------------------------------|-7-7-7-7-7-7-7-7--------------------------|
||o---------------------------------|-----------------10-10-10-10-10-10-10-10--|
||--0-0-0-0-7-7-7-7-8-8-8-8-5-5-5-5-|------------------------------------------|
|
|   S S S S S S S S S S S S S S S S   S S S S S S S S  S  S  S  S  S  S  S  S
||----------------------------------|------------------------------------------|
||o---------------------------------|------------------------------------------|
||----------------------------------|------------------------------------------|
||----------------------------------|------------------------------------------|
||o---------------------------------|-8-8-8-8-8-8-8-8--7--7--7--7--7--7--7--7--|
||--0-0-0-0-7-7-7-7-8-8-8-8-5-5-5-5-|------------------------------------------|


                                       |-3--|    |-3-|
  S S S S S S S S S S S S S S S S   q  E  E E q  E E E
|---------------------------------|----------------------||
|---------------------------------|---------------------o||
|---------------------------------|----------------------||
|---------------------------------|----7h=8p7------------||
|---------------------------------|-5------------5h7h8--o||
|-0-0-0-0-7-7-7-7-8-8-8-8-5-5-5-5-|-----------5----------||
|
|                                      |-3--|    |-3-|
| S S S S S S S S S S S S S S S S   q  E  E E q  E E E
|---------------------------------|----------------------||
|---------------------------------|---------------------o||
|---------------------------------|----------------------||
|---------------------------------|----------------------||
|---------------------------------|----8h10p8----5h7h8--o||
|-0-0-0-0-7-7-7-7-8-8-8-8-5-5-5-5-|-8---------5----------||


 Guitar Solo I
  Gtr III
    ~~~~
                                  |---3---|
    H.                     a a  a E  E    E
|---------------------------------------------|
|-----------------------------------15h==17---|
|---------------------------------x-----------|
|-------------------------------x-------------|
|----------------------------x----------------|
|-/12----------------------x------------------|
|
| Gtr IV
|                               |----3----|
|   H.                          E    E    E
|---------------------------------------------|
|-----------------------------------12h==13---|
|------------------------------13-------------|
|---------------------------------------------|
|---------------------------------------------|
|---------------------------------------------|
|
| Gtrs I, II
|   PM-----------------------------------------
|   S  S S S S S S S S S S S    S S    S    S
|---------------------------------------------|
|---------------------------------------------|
|---------------------------------------------|
|---------------------------------------------|
|---------------------------------------------|
|---0--0-0-0-0-0-0-0-0-0-0-0----0-0----0----0-|


   W
|--------------------------------------|
|-17b18--------------------------------|
|--------------------------------------|
|--------------------------------------|
|--------------------------------------|
|--------------------------------------|
|
|  W
|--------------------------------------|
|-13b15--------------------------------|
|--------------------------------------|
|--------------------------------------|
|--------------------------------------|
|--------------------------------------|
|
|-----------------------------------|
|  S    S S S S S S S S S S S S S S S
|--------------------------------------|
|--------------------------------------|
|--------------------------------------|
|--------------------------------------|
|--------------------------------------|
|-/8----8-8-8-8-8-8-8-8-8-8-8-8-8-8-8--|


         ~~~
   S  S  H.                        S  S
|---------------------------------------|
|-17p15---------------------------15h17-|
|-------17------------------------------|
|---------------------------------------|
|---------------------------------------|
|---------------------------------------|
|
|        ~~~
|  S  S  H.                        S  S
|---------------------------------------|
|-13p12---------------------------12h13-|
|-------14------------------------------|
|---------------------------------------|
|---------------------------------------|
|---------------------------------------|
|
|  PM------------------------------------
|  S  S  S  S S S S S S S S S S S  S  S
|---------------------------------------|
|---------------------------------------|
|---------------------------------------|
|---------------------------------------|
|---------------------------------------|
|--5--5--5--5-5-5-5-5-5-5-5-5-5-5--5--5-|


   |-------3-------|      |-------3-------|
   Q      Q        Q      Q      Q        Q
|-----------------------------------------------|
|-18-----17--------------20-----17--------------|
|-----------------17---------------------17-----|
|-----------------------------------------------|
|-----------------------------------------------|
|-----------------------------------------------|
|
|  |-------3-------|      |-------3-------|
|  Q      Q        Q      Q      Q        Q
|------------------------12---------------------|
|-15-----13---------------------13--------------|
|-----------------14---------------------14-----|
|-----------------------------------------------|
|-----------------------------------------------|
|-----------------------------------------------|
|
|---------------------------------------------|
|  S S S    S S S    S S  S S S    S S S    S S
|-----------------------------------------------|
|-----------------------------------------------|
|-----------------------------------------------|
|-----------------------------------------------|
|--8-8-8----8-8-8----8-8--7-7-7----7-7-7----7-7-|
|-----------------------------------------------|


  Gtr III
   |----3----|    |----3----|    |----3----|    |----3-----|
   E    E    E    E    E    E    E    E    E    E    S  S  E
|--------------------------------------------------------------|
|-18p==17p==15---17p==15--------15-----------------------------|
|--------------------------18--------18p==15---18p==15---------|
|------------------------------------------------------15h19---|
|--------------------------------------------------------------|
|--------------------------------------------------------------|
|
| Gtrs I, II
|  PM-----------------------------------------------------------
|  S S    S    S  S S    S    S  S S    S    S  S S     S    S
|--------------------------------------------------------------|
|--------------------------------------------------------------|
|--------------------------------------------------------------|
|--------------------------------------------------------------|
|--------------------------------------------------------------|
|--0-0----0----0--0-0----0----0--0-0----0----0--0-0-----0----0-|


   |----3----|    |----3----|    |----3----|    |----3----|
   E    E    E    E    E    E    E    E    E    E    E    E
|--------------------------------------------------------------|
|--------------------------------------------------------------|
|-15-----------------------------------------------------------|
|------19p==17---19p==17---15h==17p==15--------15--------------|
|-----------------------------------------19--------19p==17----|
|--------------------------------------------------------------|
|
|-----------------------------------------------------------|
|  S S    S    S  S S    S    S  S S    S    S  S S    S    S
|--------------------------------------------------------------|
|--------------------------------------------------------------|
|--------------------------------------------------------------|
|--------------------------------------------------------------|
|--------------------------------------------------------------|
|-/8-8----8----8--8-8----8----8--8-8----8----8--8-8----8----8--|


   |----3----|    |----3----|    |----3----|    |----3----|
   E    E    E    E    E    E    E    E    E    E    E    E
|-------------------------------------------------------------|
|-------------------------------------------------------------|
|-------------------------------------------------------------|
|-------------------------------------------------------------|
|-19p==17---16h==17p==16---13h==16---13p==12---13p==12p==10---|
|-------------------------------------------------------------|
|
|  PM----------------------------------------------------------
|  S S    S    S  S S    S    S  S S    S    S  S S    S    S
|-------------------------------------------------------------|
|-------------------------------------------------------------|
|-------------------------------------------------------------|
|-------------------------------------------------------------|
|-------------------------------------------------------------|
|--5-5----5----5--5-5----5----5--5-5----5----5--5-5----5----5-|


                                ~~
   |---3----|    |---3---|
   E    E   E    E   E   E   a  H
|------------------------------------------------||
|------------------------------------------------||
|------------------------------------------------||
|------------------------------------------------||
|-12p==10---8h==10---8p==7-----------------------||
|----------------------------8s12----------------||
|
|---------------------------------------------|
|  S S    S   S  S S   S   S    S S S S S S S S
|------------------------------------------------||
|------------------------------------------------||
|------------------------------------------------||
|------------------------------------------------||
|--8-8----8---8--8-8---8---8----7-7-7-7-7-7-7-7--||
|------------------------------------------------||


 Arpeggios
  Q=134
  C#7sus4/B                                        Dsus4add6/B
     S   S   S   S   S   S   S   S   S   S   S   S   S   S   S   S
|-!/17---------!17---------!17---------!17---------!18---------!18-|
|------!17---------!17---------!17---------!17---------!18---------|
|----------!19---------!19---------!19---------!19---------!19-----|
|------------------------------------------------------------------|
|------------------------------------------------------------------|
|------------------------------------------------------------------|
|
|    PM----|                 PM----|                 PM----|
|    S   S   S   e       S   S   S   S   e       S   S   S   S   S
|------------------------------------------------------------------|
|------------------------------------------------------------------|
|------------------------------------------------------------------|
|----------------------------------------------------------------5-|
|----------------8-------8---------------8-------8-----------------|
|----0---0---0---------------0---0---0---------------5---5---5-----|


          F#+sus4/B               C#sus4add6/Bb
    S   S   S   S   S   S   S   S   S   S   S   S   S   S   S   S
|---------!17---------!17---------!17---------!17---------!17-----|
|-!18---------!18---------!18---------!17---------!17---------!17-|
|-----!19---------!19---------!19---------!18---------!18---------|
|-----------------------------------------------------------------|
|-----------------------------------------------------------------|
|-----------------------------------------------------------------|
|
|           PM----|                 PM----|                 PM|
|   S   S   S   S   S   e       S   S   S   S   e       S   S   S
|-----------------------------------------------------------------|
|-----------------------------------------------------------------|
|-----------------------------------------------------------------|
|---x---5---------------5-------5---------------------------------|
|-----------------------------------------------8-------8---------|
|-----------5---5---5---------------7---7---7---------------7---7-|


                  Bbmadd6                 C#sus4add6/Bb
    S   S   S   S   S   S   S   S   S   S   S   S   S   S   S   S
|-----!17---------!18---------!18---------!17---------!17---------|
|---------!17---------!17---------!17---------!17---------!17-----|
|-!18---------!18---------!18---------!18---------!18---------!18-|
|-----------------------------------------------------------------|
|-----------------------------------------------------------------|
|-----------------------------------------------------------------|
|
|                   PM----|                 PM----|
|   S   e       S   S   S   S   e       S   S   S   S   e       S
|-----------------------------------------------------------------|
|-----------------------------------------------------------------|
|-----------------------------------------------------------------|
|-------------------------------2-------2---------------2-------2-|
|-------8-------8-------------------------------------------------|
|---7---------------3---3---3---------------3---3---3-------------|


  C#7sus4/B                                       Dsus4add6/B
    S   S   S   S   S   S   S   S   S   S   S   S   S   S   S   S
|-!17---------!17---------!17---------!17---------!18---------!18-|
|-----!17---------!17---------!17---------!17---------!18---------|
|---------!19---------!19---------!19---------!19---------!19-----|
|-----------------------------------------------------------------|
|-----------------------------------------------------------------|
|-----------------------------------------------------------------|
|
|   PM----|                 PM----|                 PM----|
|   S   S   S   e       S   S   S   S   e       S   S   S   S   S
|-----------------------------------------------------------------|
|-----------------------------------------------------------------|
|-----------------------------------------------------------------|
|---------------------------------------------------------------5-|
|---------------8-------8---------------8-------8-----------------|
|---0---0---0---------------0---0---0---------------5---5---5-----|


          F#+sus4/B               C#sus4add6/Bb
    S   S   S   S   S   S   S   S   S   S   S   S   S   S   S   S
|---------!17---------!17---------!17---------!17---------!17-----|
|-!18---------!18---------!18---------!17---------!17---------!17-|
|-----!19---------!19---------!19---------!18---------!18---------|
|-----------------------------------------------------------------|
|-----------------------------------------------------------------|
|-----------------------------------------------------------------|
|
|           PM----|                 PM----|                 PM|
|   S   S   S   S   S   e       S   S   S   S   e       S   S   S
|-----------------------------------------------------------------|
|-----------------------------------------------------------------|
|-----------------------------------------------------------------|
|---x---5---------------5-------5---------------------------------|
|-----------------------------------------------8-------8---------|
|-----------5---5---5---------------7---7---7---------------7---7-|


                  Bbmadd6                 C#sus4add6/Bb
    S   S   S   S   S   S   S   S   S   S   S   S   S   S   S   S
|-----!17---------!18---------!18---------!17---------!17----------||
|---------!17---------!17---------!17---------!17---------!17------||
|-!18---------!18---------!18---------!18---------!18---------!18S=||
|------------------------------------------------------------------||
|------------------------------------------------------------------||
|------------------------------------------------------------------||
|
|                   PM----|                 PM----|
|   S   e       S   S   S   S   e       S   S   S   S   e       S
|------------------------------------------------------------------||
|------------------------------------------------------------------||
|------------------------------------------------------------------||
|-------------------------------2-------2---------------2-------2--||
|-------8-------8--------------------------------------------------||
|---7---------------3---3---3---------------3---3---3--------------||


 Guitar Solo II
  Gtr III
    ~~~~
    Q        H.                                    W
|-----------------------------------------------|---------------------------------------|
|-----------------------------------------------|---------------------------------------|
|--19-------------------------------------------|---------------------------------------|
|-----------------------------------------------|---------------------------------------|
|-----------------------------------------------|---------------------------------------|
|-----------------------------------------------|---------------------------------------|
|
| Gtr IV
|   ~~~~                                                                  ~~~~~~~~~~~~~~~
|   Q.             +E.        S  S  S  E    E      E    E    E    E       H
|-------------------------------------12---13---|-15---13---12---13b15r===x-------------|
|-/15-------------(15)\-----/15-15-15-----------|------------------------14-------------|
|-----------------------------------------------|---------------------------------------|
|-----------------------------------------------|---------------------------------------|
|-----------------------------------------------|---------------------------------------|
|-----------------------------------------------|---------------------------------------|
|
| Gtrs I, II
|   PM---|          PM----|            PM--|            PM--|             PM--|     PM|
|   S  S S e    S   S   S S   e     S  S S  S S    S S  S S  S e       S  S S S e S S S
|-----------------------------------------------|---------------------------------------|
|-----------------------------------------------|---------------------------------------|
|-----------------------------------------------|---------------------------------------|
|---------------------------------------------5-|--x-5---------5-------5----------------|
|----------8----8-------------8-----8-----------|-------------------------------8-8-----|
|---0--0-0----------0---0-0------------5-5--5---|-------5-5--5------------7-7-7-----7-7-|


    W
|------------------------------------------------|
|------------------------------------------------|
|------------------------------------------------|
|------------------------------------------------|
|------------------------------------------------|
|------------------------------------------------|
|
|~~~~~~
|  +E     +E       E    E    E    E    E    E
|----------------/17p==15--------15--------------|
|-(14)---(14)\--------------18--------18p==17----|
|------------------------------------------------|
|------------------------------------------------|
|------------------------------------------------|
|------------------------------------------------|
|
|                  PM--|          PM--|
|   S  e       S   S S  S e    S  S S  S e    S
|------------------------------------------------|
|------------------------------------------------|
|------------------------------------------------|
|-------------------------2----2---------2----2--|
|------8-------8---------------------------------|
|---7--------------3-3--3---------3-3--3---------|


  F#sus4+5          Dadd6add11/F#       Asus2add6add11/F#
 3/4
  Gtr IV
   S  S  S  S  S  S  S  S  S  S  S  S    S  S  S  S  S  S  S  S  S  S  S  S
|----------17----------------18-------|----------20p18p17-18p17----17-------|
|-------18----18----------18----18----|-------18----------------20----20p18-|
|----19----------19----19----------19-|----19-------------------------------|
|-19----------------19----------------|-19----------------------------------|
|-------------------------------------|-------------------------------------|
|-------------------------------------|-------------------------------------|
|
| Gtrs I, II
|  PM---|            PM---|              PM---|            PM---|
|  S  S  S  e     S  S  S  S  e     S    S  S  S  S  S  S  S  S  S  e     S
|-------------------------------------|-------------------------------------|
|-------------------------------------|-------------------------------------|
|-------------------------------------|-------------------------------------|
|-------------------------------------|-----------5--x--5-----------5-----5-|
|-----------8-----8-----------8-----8-|-------------------------------------|
|--0--0--0-----------0--0--0----------|--5--5--5-----------5--5--5----------|


  F#sus4+5          Dadd6add11/F#
 3/4
  Gtr IV
   S  S  S  S  S  S  S  S  S  S  S  S
|----------17----------------18-------|
|-------18----18----------18----18----|
|----19----------19----19----------19-|
|-19----------------19----------------|
|-------------------------------------|
|-------------------------------------|
|
| Gtrs I, II
|  PM---|            PM|
|  S  S  S  e     S  S  S  S  e     S
|-------------------------------------|
|-------------------------------------|
|-------------------------------------|
|-------------------------------------|
|-----------8-----8-----------8-----8-|
|--7--7--7-----------7--7--7----------|


  Asus2add6add11/F#
   S  S  S  S  S  S  S  S  S  S  S     S
|----------20p18p17-18p17----17h18-------||
|-------18----------------20----------18-||
|----19----------------------------------||
|-19-------------------------------------||
|----------------------------------------||
|----------------------------------------||
|
|  PM---|            PM---|
|  S  S  S  e     S  S  S  S  S.   S.
|----------------------------------------||
|----------------------------------------||
|----------------------------------------||
|-----------2-----2-----------2----0-----||
|----------------------------------------||
|--3--3--3-----------3--3--3-------------||


 Bridge
  Q=184
 4/4
  Gtr IV
                    ~~~~
   H               +H                W
|----------------------------------|----------|
|----------------------------------|----------|
|-17b19-----------(17)-------------|----------|
|----------------------------------|----------|
|----------------------------------|----------|
|----------------------------------|----------|
|
| Gtrs I, II
|  PM--------------------------------|
|  S    S E S S E   S  E S S S S S   q  H.
|----------------------------------|----------|
|----------------------------------|----------|
|----------------------------------|----------|
|----------------------------------|----------|
|----------------------------------|----------|
|--0----0-0-0-0-0---0--0-0-0-0-0-0-|-0--------|


    Gtrs I, II
    PM--------------------------------------------------|
    S S E S S E S E S S S S S   S S E S S E S E S S S S S
||----------------------------|----------------------------||
||o---------------------------|---------------------------o||
||----------------------------|----------------------------||
||----------------------------|----------------------------||
||o---------------------------|---------------------------o||
||--0-0-0-0-0-0-0-0-0-0-0-0-0-|-0-0-0-0-0-0-0-0-0-0-0-0-0--||


 Harmony
          F#sus4+5
  Gtrs I, II
  PM-----------------------------------
  S S E    S S    E     S E S S S S S
|-------------------------------------|
|-------------------------------------|
|-------------------------------------|
|-------------------------------------|
|-------------------------------------|
|-0-0-0----0-0----0-----0-0-0-0-0-0-0-|
|
| Gtr III
|                       ~~
|          |----3----|
| S S S S  E    E    E  Q     E   E
|-------------------------------------|
|-----x---10--------------------------|
|---x---x-----------10----------------|
|-x------------12-------------x---x---|
|----------------------12-----x---x---|
|-------------------------------------|


 -------------------------------------------|
  S S    E    S S    E    S E      S  S S S S
|----------------------------------------------|
|----------------------------------------------|
|----------------------------------------------|
|----------------------------------------------|
|----------------------------------------------|
|-0-0----0----0-0----0----0-0------0--0-0-0-0--|
|
|                                     ~~
| |---3----|  |---3----|  |--3---|
| E    E   E  E    E   E  E    E E    Q
|--------------------------------9h==12--------|
|-----------------11----------11---------------|
|----------9h12--------9h12--------------------|
|-8h==12---------------------------------------|
|----------------------------------------------|
|----------------------------------------------|


          F#sus4+5
  PM-----------------------------------
  S S E    S S    E     S E S S S S S
|-------------------------------------|
|-------------------------------------|
|-------------------------------------|
|-------------------------------------|
|-------------------------------------|
|-0-0-0----0-0----0-----0-0-0-0-0-0-0-|
|
|                       ~~
|          |----3----|
| S S S S  E    E    E  Q     E   E
|-------------------------------------|
|-----x---10--------------------------|
|---x---x-----------10----------------|
|-x------------12-------------x---x---|
|----------------------12-----x---x---|
|-------------------------------------|


  F#sus4+5/D
 ------------------------------------------------|
    S S    E     S  S  E     S  E       S  S S S S
|--------------------------------------------------|
|--------------------------------------------------|
|--------------------------------------------------|
|--------------------------------------------------|
|--------------------------------------------------|
|---0-0----0-----0--0--0-----0--0-------0--0-0-0-0-|
|
|                                          ~~
|   |----3----|                 |--3--|
|   E    E    E  S  S  S  S  a  E  E  E    Q
|-/17--------------------------17------------------|
|-------18------------------18----18---------------|
|------------19----------19----------19------------|
|---------------19----19------------------19-------|
|------------------20------------------------------|
|--------------------------------------------------|


    Gtrs I, II
    PM-----------------------------------
    S S E    S S    E     S E S S S S S
||--------------------------------------|
||o-------------------------------------|
||--------------------------------------|
||--------------------------------------|
||o-------------------------------------|
||--0-0-0----0-0----0-----0-0-0-0-0-0-0-|
|
|   Gtr III
|                         ~~
|            |----3----|
|   S S S S  E    E    E  Q     E   E
||--------------------------------------|
||o-----x---10--------------------------|
||----x---x-----------10----------------|
||--x------------12-------------x---x---|
||o----------------------12-----x---x---|
||--------------------------------------|
|
|   Gtr IV
|                         ~~
|            |----3----|
|   S S S S  E    E    E  Q     E   E
||----------17--------------------------|
||o-----x--------18---------------------|
||----x---x-----------19----------------|
||--x--------------------19-----x---x---|
||o-----------------------------x---x---|
||--------------------------------------|


 -------------------------------------------|
  S S    E    S S    E    S E      S  S S S S
|---------------------------------------------|
|---------------------------------------------|
|---------------------------------------------|
|---------------------------------------------|
|---------------------------------------------|
|-0-0----0----0-0----0----0-0------0--0-0-0-0-|
|
|                                     ~~
| |---3----|  |---3----|  |--3---|
| E    E   E  E    E   E  E    E E    Q
|--------------------------------9h==12-------|
|-----------------11----------11--------------|
|----------9h12--------9h12-------------------|
|-8h==12--------------------------------------|
|---------------------------------------------|
|---------------------------------------------|
|
|                                     ~~
| |---3----|  |---3----|  |--3---|
| E    E   E  E    E   E  E    E E    Q
|--------------------------------9h==12-------|
|-----------------11----------11--------------|
|----------9h12--------9h12-------------------|
|-8h==12--------------------------------------|
|---------------------------------------------|
|---------------------------------------------|


  PM-----------------------------------
  S S E    S S    E     S E S S S S S
|-------------------------------------|
|-------------------------------------|
|-------------------------------------|
|-------------------------------------|
|-------------------------------------|
|-0-0-0----0-0----0-----0-0-0-0-0-0-0-|
|
|                       ~~
|          |----3----|
| S S S S  E    E    E  Q     E   E
|-------------------------------------|
|-----x---10--------------------------|
|---x---x-----------10----------------|
|-x------------12-------------x---x---|
|----------------------12-----x---x---|
|-------------------------------------|
|
|                       ~~
|          |----3----|
| S S S S  E    E    E  Q     E   E
|---------17--------------------------|
|-----x--------18---------------------|
|---x---x-----------19----------------|
|-x--------------------19-----x---x---|
|-----------------------------x---x---|
|-------------------------------------|


 ---------------------------------------------------------|
   S    S     E        S S    E        S E       S  S S S S
|------------------------------------------------------------||
|-----------------------------------------------------------o||
|------------------------------------------------------------||
|------------------------------------------------------------||
|-----------------------------------------------------------o||
|--0----0-----0--------0-0----0--------0-0-------0--0-0-0-0--||
|
|                                                   ~~
|  |---3---|  |--3--|  |----3----|     |---3---|
|  S  S    S  S  S  S  E    E    E     E    E  E    Q
|------------------17p13--------------15---------------------||
|---------------15---------15--------------15---------------o||
|------------14-----------------16------------16-------------||
|---------15---------------------------------------17--------||
|-12-15-----------------------------------------------------o||
|------------------------------------------------------------||
|
|                                                   ~~
|  |---3---|  |--3--|  |----3----|     |---3---|
|  S  S    S  S  S  S  E    E    E  a  E    E  E    Q
|---------------------17--------------18---------------------||
|------------------18------18--------------18---------------o||
|---------------19--------------19------------19-------------||
|---------15s19--------------------19--------------20--------||
|----15-----------------------------------------------------o||
|-15---------------------------------------------------------||


 Bridge
                            Q=134         Q=184
                                          B5
                           3/4           4/4
  Gtr I
  PM--------------------|
  S S E S S E S S E S S E   E E E E E E   W          +W
|-------------------------|-------------|----------|--------|
|-------------------------|-------------|----------|--------|
|-------------------------|-------------|----------|--------|
|-------------------------|-------------|-0--------|-(0)----|
|-------------------------|-------------|-0--------|-(0)----|
|-0-0-0-0-0-0-0-0-0-0-0-0-|-5-7-8-4-5-7-|-0--------|-(0)----|
|
| Gtr II
| PM--------------------|
| S S E S S E S S E S S E   E E E E E E   W          +W
|-------------------------|-------------|----------|--------|
|-------------------------|-------------|----------|--------|
|-------------------------|-------------|-7--------|-(7)----|
|-------------------------|-------------|-x--------|--------|
|-------------------------|-------------|-5--------|-(5)----|
|-0-0-0-0-0-0-0-0-0-0-0-0-|-5-7-8-4-5-7-|----------|--------|


                            G5D5
  +W           +W           E  E  +H.           +W      3x
|------------|------------|----------------||-----------||
|------------|------------|----------------||o---------o||
|------------|------------|-3s10-(10)------||--(10)-----||
|-(0)--------|-(0)--------|-x--------------||-----------||
|-(0)--------|-(0)--------|-1s=8--(8)------||o--(8)----o||
|-(0)--------|-(0)--------|----------------||-----------||
|
| +W           +W           E  E  +H.           +W      3x
|------------|------------|----------------||-----------||
|------------|------------|----------------||o---------o||
|-(7)--------|-(7)--------|-3s=7--(7)------||---(7)-----||
|------------|------------|-x--------------||-----------||
|-(5)--------|-(5)--------|-1s=5--(5)------||o--(5)----o||
|------------|------------|----------------||-----------||


   Verse
    Q=174
    Gtrs I, II
    PM--| ~  PM--|      PM--| ~  PM--|
    |-3-|    |-3-|      |-3-|    |-3-|
    E E E Q  E E E Q    E E E Q  E E E Q
||--------------------|-------------------|
||o-------------------|-------------------|
||--------------------|-------------------|
||--------------------|-------------------|
||o-------5--------4--|-------8--------7--|
||--0-0-0----0-0-0----|-0-0-0----0-0-0----|


  PM--| ~  PM--|      PM--| ~  PM--|
  |-3-|    |-3-|      |-3-|    |-3-|
  E E E Q  E E E Q    E E E Q  E E E Q
|-------------------|--------------------||
|-------------------|-------------------o||
|-------------------|--------------------||
|-------------------|--------------------||
|-------7--------5--|-------8--------4--o||
|-8-8-8----8-8-8----|-5-5-5----0-0-0-----||


    Gtr I
    PM--| ~  PM--|      PM--|  ~~ PM--|
    |-3-|    |-3-|      |-3-|     |-3-|
    E E E Q  E E E Q    E E E  Q  E E E  Q
||--------------------|---------------------|
||o-------------------|---------------------|
||--------------------|---------------------|
||--------------------|---------------------|
||o-------5--------4--|--------8---------7--|
||--0-0-0----0-0-0----|-0-0-0-----0-0-0-----|
|
|   Gtr II
|   PM--| ~  PM--|      PM--|  ~~ PM--|
|   |-3-|    |-3-|      |-3-|     |-3-|
|   E E E Q  E E E Q    E E E  Q  E E E  Q
||--------------------|---------------------|
||o-------------------|---------------------|
||--------------------|---------------------|
||--------------------|---------------------|
||o-------8--------7--|-------12--------10--|
||--0-0-0----0-0-0----|-0-0-0-----0-0-0-----|


  PM--|  ~~ PM--|      PM--| ~  PM--|
  |-3-|     |-3-|      |-3-|    |-3-|
  E E E  Q  E E E Q    E E E Q  E E E Q
|--------------------|--------------------||
|--------------------|-------------------o||
|--------------------|--------------------||
|--------------------|--------------------||
|--------7--------5--|-------8--------4--o||
|-8-8-8-----8-8-8----|-5-5-5----0-0-0-----||
|
| PM--|  ~~ PM--|      PM--| ~  PM--|
| |-3-|     |-3-|      |-3-|    |-3-|
| E E E  Q  E E E Q    E E E Q  E E E Q
|--------------------|--------------------||
|--------------------|-------------------o||
|--------------------|--------------------||
|--------------------|-------7------------||
|-------10--------8--|----------------7--o||
|-8-8-8-----8-8-8----|-5-5-5----0-0-0-----||


    Gtrs I, II
    PM-----------------------------------------|
    S S S S q  S S S S q    S S S S q  S S S S q
||------------------------|-----------------------||
||o-----------------------|----------------------o||
||------------------------|-----------------------||
||------------------------|-----------------------||
||o-----------------------|----------------------o||
||--0-0-0-0-0--0-0-0-0-0--|-0-0-0-0-0--0-0-0-0-0--||


  Gtr I
  PM-----------------------------------------|
  S S S S q  S S S S q    S S S S q  S S S S q
|-----------------------|-----------------------|
|-----------------------|-----------------------|
|-----------------------|-----------------------|
|-----------------------|-----------------------|
|-----------------------|-----------------------|
|-0-0-0-0-0--0-0-0-0-0--|-0-0-0-0-0--0-0-0-0-0--|
|
| Gtr II
| TP      TP TP      TP   TP      TP TP      TP
| Q       Q  Q       Q    Q       Q  Q       Q
|-----------------------|-----------------------|
|-----------------------|-----------------------|
|-----------------------|-----------------------|
|-----------------------|-----------------------|
|-----------------------|-----------------------|
|-0-------1--0-------3--|-0-------1--4-------3--|


                         3/4
  PM-----------------|
  S S S S q  S S S S q    q   H
|-----------------------|--------------|
|-----------------------|--------------|
|-----------------------|--------------|
|-----------------------|--------------|
|-----------------------|--------------|
|-0-0-0-0-0--0-0-0-0-0--|-0------------|
|
| TP      TP TP      TP
| Q       Q  Q       Q    q   Q    Q
|-----------------------|--------------|
|-----------------------|--------------|
|-----------------------|----<3>-------|
|-----------------------|---------<3>--|
|-----------------------|--------------|
|-0-------1--3-------1--|-0------------|


   4/4                                       3/4
    Gtrs I, II
    TP TP TP TP   TP TP TP TP   TP TP TP TP
    Q  Q  Q  Q    Q  Q  Q  Q    Q  Q  Q  Q    q   Q    Q
||--------------|-------------|-------------|----------------||
||o-------------|-------------|-------------|---------------o||
||--------------|-------------|-------------|----<3>---------||
||--------------|-------------|-------------|---------<3>----||
||o-------------|-------------|-------------|---------------o||
||--0--1--0--3--|-0--1--4--3--|-0--1--3--1--|-0--------------||


    Q=147
   4/4                                         3/4
                                  TP TP TP TP
    Q  Q  Q   Q     Q  Q  Q  Q    Q  Q  Q  Q    q   Q    Q     3x
||----------------|-------------|-------------|----------------||
||o---------------|-------------|-------------|---------------o||
||-----------<3>--|-------------|-------------|----<3>---------||
||-----------<3>--|-------------|-------------|---------<3>----||
||o---------------|-------------|-------------|---------------o||
||--0--1--0-------|-0--1--4--3--|-0--1--3--1--|-0--------------||


                     >
  PM
  q   Q     Q       +H.          +H.          +H.
|----------------|------------|------------|----------||
|----------------|------------|------------|----------||
|----<3>--(<3>)--|-(<3>)------|-(<3>)------|-(<3>)----||
|----------<3>---|-(<3>)------|-(<3>)------|-(<3>)----||
|----------------|------------|------------|----------||
|-3--------------|------------|------------|----------||


   UGH, More Of This Shit
   4/4
    Gtr I
    PM-------------------------------------
    S S Q.   S S Q.     S S Q.   S S Q.
||--------------------|-------------------|
||o-------------------|-------------------|
||--------------------|-------------------|
||--------------------|-------------------|
||o-------------------|-------------------|
||--0-0-0----1-1-1----|-4-4-4----3-3-3----|
|
|   Gtr II
|   PM-------------------------------|
|   S S Q.   S S Q.     S S Q.   S S Q.
||--------------------|-------------------|
||o-------------------|-------------------|
||--------------------|-------------------|
||--------------------|-------------------|
||o-------------------|-------------------|
||--0-0-0----1-1-1----|-4-4-4----3-3-3----|


 -----------------------------|
   S S Q.     S S Q.      S S Q.     H
|----------------------|-------------------|
|----------------------|------------<3>----|
|----------------------|------------<3>----|
|----------------------|-------------------|
|----------------------|-------------------|
|--0-0-0------1-1-1----|--4-4-4------------|
|
|  TP         TP          TP
|  H          H           H          H
|----------------------|-------------------|
|----------------------|-------------------|
|----------------------|-----------<10>----|
|----------------------|-----------<10>----|
|----------------------|-/8----------------|
|-/8--------/11--------|-------------------|


  PM-------------------------------|
  S S Q.   S S Q.     S S Q.   S S Q.     W              W
|-------------------|-------------------|--------------|----------||
|-------------------|-------------------|--------------|---------o||
|-------------------|-------------------|-6tr10--------|-5tr9-----||
|-------------------|-------------------|--------------|----------||
|-------------------|-------------------|--------------|---------o||
|-0-0-0----1-1-1----|-4-4-4----3-3-3----|--------------|----------||
|
| PM-------------------------------|
| S S Q.   S S Q.     S S Q.   S S Q.     W              W
|-------------------|-------------------|--------------|----------||
|-------------------|-------------------|--------------|---------o||
|-------------------|-------------------|-3tr6---------|-2tr5-----||
|-------------------|-------------------|--------------|----------||
|-------------------|-------------------|--------------|---------o||
|-0-0-0----1-1-1----|-4-4-4----3-3-3----|--------------|----------||


 Outro
                          Q=184
  >
                          PM--------|           TP
  W          +W           S S e S S e E E E E   w
|----------|------------|---------------------|------*|
|----------|------------|---------------------|------*|
|-5--------|-(5)--------|-------------2p0-----|------*|
|----------|------------|-----------------3p2-|------*|
|----------|------------|---------------------|------*|
|----------|------------|-0-0-0-0-0-0---------|-0----*|
|
| >
|                         PM--------|           TP
| W          +W           S S e S S e E E E E   w
|----------|------------|---------------------|------*|
|----------|------------|---------------------|------*|
|-2--------|-(2)--------|-------------5-------|------*|
|----------|------------|---------------8p7p5-|------*|
|----------|------------|---------------------|------*|
|----------|------------|-0-0-0-0-0-0---------|-0----*|


















9. FIFTEEN FATHOMS, AND COUNTING:

|-------------------|--------------------|------------------|
|----------------0--|----------------0---|----------------0-|
|---------3------3--|----------------4---|----------3-----3-|
|----------------4--|---------4------4---|----------------4-|
|------2-----2------|------2-----2-------|------2------2----|
|---4---------------|---0----------------|---4--------------|

|--------------------|-----------------------|---0---0--------------------|
|0----------------0--------------0-----0---0-|-----2------------0---------|
|-----------------4--|--------------4--------|---------------3----3-------|
|----------4------4--|--------4-----4--------|------------1---------------|
|0------2-----2------|-----2-----2-----------|----------------------------|
|----0---------------|--0--------------------|----------------------------|

                                                                        X4
|-------------------------------------------------------------------------|
|-----------------------------------------------------------------------0-|
|----------------11-------11-------11----11--------11-11-11---------------|
|---------9------9--------9--------9-----9---------9--9--9----------------|
|------9----9----9--------9--------9-----9---------9--9--9--------------0-|
|---0---------------------------------------------------------------------|
                           Listen to the song to
                           get the strum pattern
     Part 1                      Strum X8                 Strum X8  |X2|
|--------------------------|--------7---|------------|-----------------|
|0-------------------------|--------4---|------------|----------------0|
|----2--2/6--6--6--8\6--4--|--------4---|------------|------11---------|
|----x--x-x--x--x--x-x--x--|--------6---|Part 1 again|-------9---------|
|0---4--4/4--4--4--6\4--2--|------------|------------|-------9--------0|
|--------------------------|----4-------|------------|---0-------------|

                                             X4
|----------------------------2-|-----------2--|
|0------------2-----------2--2-|-----------2-0|
|---------4------------4-----6-|-----------6--|
|-------------------1--------4-|-----------4--|
|0-----------------------------|-------------0|
|-----0------------------------|-------2------|


Play these out
|-------------------|--------------------|------------------|
|----------------0--|----------------0---|----------------0-|
|---------3------3--|----------------4---|----------3-----3-|
|----------------4--|---------4------4---|----------------4-|
|------2-----2------|------2-----2-------|------2------2----|
|---4---------------|---0----------------|---4--------------|

There you go Great song.


(THIS IS THE ONLY SONG THAT IS IN STANDARD TUNING!!!!!!!!!!!!!!!)


















10. OFF THE HEEZAY:

Rhythm to intro solo
|--------------------------------------|
|--------------------------------------|
|--------------------------------------|
|--11-----13-----9---------------------|
|--8------10-----7----88-77-55-44------|
|--8------10-----7----88-77-55-44------|
                      ** ** ** **

|-----------------------------------------------------|
|-----------------------------------------------------|
|---------------------------------------------[9]-----|
|-------7----6--------------7----6h7p6h7p6h7----------|
|--5--------------5----5------------------------------|
|----00---00---00---00---00---00----------------------|
     **   **   **   **   **   **

|-----------------------------------------------------|
|-----------------------------------------------------|
|-----------------------------------------------------|
|-------7----6--------------7----6--------------------|
|--5--------------5----5----------------------[8]-----|
|----00---00---00---00---00---00----------------------|
     **   **   **   **   **   **


 Verse 1 (PLAY X2)
|----------------------------------------------------------|
|----------------------------------------------------------|
|----------------------------------------------------------|
|-------7----6---------------------------------------------|
|--5--------------5----8-----8-----8---4---5---0---1-------|
|----00---00---00---00---0-0---0-0---0---0---0---0---------|
     **   **   **   **   * *   * *   *   *   *   *

|-----------------------------------------------------------------------|
|----------------------------------------------------------------[9]\---|
|------------------------------------------------------[12]\------------|
|-----------------------------------------------------------------------|
|--4-----4-----4----8-----8-----8---5-----5-----5-----------------------|
|----0-0---0-0---0----0-0---0-0---0---0-0---0-0---0-00--------00--------|
     * *   * *   *    * *   * *   *   * *   * *   * **        **

|----------------------------------------------------------|
|----------------------------------------------------------|
|----------------------------------------------------------|
|-------7----6---------------------------------------------|
|--5--------------5----8-----8-----8---4---5---0---1-------|
|----00---00---00---00---0-0---0-0---0---0---0---0---------|
     **   **   **   **   * *   * *   *   *   *   *

|------------------------------------------------------------------|
|------------------------------------------------------------------|
|------------------------------------------------------------------|
|------------------------------------------------------------------|
|--4-----4-----4----8-----8-----8---5-----5-----5---33-44-11-33----|
|----0-0---0-0---0----0-0---0-0---0---0-0---0-0---0-33-44-11-33----|
     * *   * *   *    * *   * *   *   * *   * *   * ** ** ** **

  Pre Breakdown
|---------------------------------|
|---------------------------------|
|---------------------------------|
|---------------------------------| x4
|--00-00-00-00-00-00-00-00--------|
|--00-00-00-00-00-00-00-00--------|
   ** ** ** ** ** ** ** **

|-----------------------------------------------------------|
|-----------------------------------------------------------|
|-----------------------------------------------------------|
|-----------------------------------------------------------| x4
|--00-00-00-00----00-00-00----00-00-00----33-44-11-33-------|
|--00-00-00-00----00-00-00----00-00-00----33-44-11-33-------|
   ** ** ** **    ** ** **    ** ** **    ** ** ** **

  Breakdown
|---------------------------------------------------|
|---------------------------------------------------|
|------------------------------------------[9]/-----|
|------------------------------------[7]/-----------|
|--0-3-1---0-3-1----yeah-yeah-yeah------------------|
|--0-3-1---0-3-1------------------------------------|
   * * *   * * *

|--------------------------------------------------------------------------|
|-----------------------------------------------------------------1/-------|
|---------------------------------[9]/----------------------------2/--11\--|
|---------------------------[7]/--------------------------------------12\--|
|--0-2-1---003-2-1---0-2-1---------------0-2-1---003-2-1---0-2-1-----------|
|--0-2-1---003-2-1---0-2-1---------------0-2-1---003-2-1---0-2-1-----------|
   * * *   *** * *   * * *               * * *   *** * *   * * *

|-------------------------------------------------------------------------|
|------------------------------------------------------------1/-----------|
|------------------------------------------------------------2/----[9]----|
|-------------------------------------------------------------------------|
|--0-2-1---003-2-1---0-2-1---bass---0-2-1---003-2-1---0-2-1---------------|
|--0-2-1---003-2-1---0-2-1----------0-2-1---003-2-1---0-2-1---------------|
   * * *   *** * *   * * *          * * *   *** * *   * * *

|--------------------------------------------------------------------------|
|-----------------------------------------------------------------1/-------|
|---------------------------------[9]/----------------------------2/--11\--|
|---------------------------[7]/--------------------------------------12\--|
|--0-2-1---003-2-1---0-2-1---------------0-2-1---003-2-1---0-2-1-----------|
|--0-2-1---003-2-1---0-2-1---------------0-2-1---003-2-1---0-2-1-----------|
   * * *   *** * *   * * *               * * *   *** * *   * * *

|--------------------------------------------------------------------------|
|--------------------------------------------------------------------------|
|--------------------------------------------------------------------------|
|--------------------------------------------------------------------666---|
|--0-2-1---003-2-1---0-2-1---bass---0-2-1---003-2-1---0-3-2-1--555---------|
|--0-2-1---003-2-1---0-2-1----------0-2-1---003-2-1---0-3-2-1--------------|
   * * *   *** * *   * * *          * * *   *** * *   * * * *  ***   ***

  Verse 2
|-------------------------------------------------------|
|-------------------------------------------------------|
|-------------------------------------------------------|
|--------------------6h9p6----5h8p5----4h7p4------------|
|--5h8p5----------------------------------------5h8p5---|
|--------0-00-0-0-00-------00-------00-------00---------|
         * ** * * **       **       **       **

|--------------------------------------|
|--------------------------------------|
|--------------------------------------|
|----------------------------5h8p5-----|
|------------------4h7p4---------------|
|--0-00-0-0-00-0-7-------0-8-----------|
   * ** * * ** * *       * *

|-------------------------------------------------------|
|-------------------------------------------------------|
|-------------------------------------------------------|
|--------------------6h9p6----5h8p5----4h7p4------------|
|--5h8p5----------------------------------------5h8p5---|
|--------0-00-0-0-00-------00-------00-------00---------|
         * ** * * **       **       **       **

|------------------------------------------------|
|------------------------------------------------|
|-----------------7h10p7h10p7h10--6h9p6h9p6h9----|
|------------------------------------------------|
|------------------------------------------------|
|--0-00-0-0-00-0---------------------------------|
   * ** * * ** *

|-------------------------------------------------------|
|-------------------------------------------------------|
|-------------------------------------------------------|
|--------------------6h9p6----5h8p5----4h7p4------------|
|--5h8p5----------------------------------------5h8p5---|
|--------0-00-0-0-00-------00-------00-------00---------|
         * ** * * **       **       **       **

|--------------------------------------|
|--------------------------------------|
|--------------------------------------|
|----------------------------5h8p5-----|
|------------------4h7p4---------------|
|--0-00-0-0-00-0-7-------0-8-----------|
   * ** * * ** * *       * *

|-------------------------------------------------------|
|-------------------------------------------------------|
|-------------------------------------------------------|
|--------------------6h9p6----5h8p5----4h7p4------------|
|--5h8p5----------------------------------------5h8p5---|
|--------0-00-0-0-00-------00-------00-------00---------|
         * ** * * **       **       **       **

|--------------------------------------------------------------------------|
|--------------------------------------------------------------------------|
|-----------------7h10p7h10p7h10-6h9p6h9p6h9-9h12p9h12p9h12-7h10p7h10p7h10-|
|--------------------------------------------------------------------------|
|--------------------------------------------------------------------------|
|--0-00-0-0-00-0-----------------------------------------------------------|
   * ** * * ** *

  Verse 3
|-------------------------------------------------------|
|-------------------------------------------------------|
|-------------------------------------------------------|
|--------------------6h9p6----5h8p5----4h7p4------------|
|--5h8p5----------------------------------------5h8p5---|
|--------0-00-0-0-00-------00-------00-------00---------|
         * ** * * **       **       **       **

|-------------------------------|
|-------------------------------|
|-------------------------------|
|-------------------------------|
|---------------3-3-0--1-1-1----|
|--0-00-0-0-0-0-3-3-0--1-1-1----|
   * ** * * * *     *

|-------------------------------------------------------|
|-------------------------------------------------------|
|-------------------------------------------------------|
|--------------------6h9p6----5h8p5----4h7p4------------|
|--5h8p5----------------------------------------5h8p5---|
|--------0-00-0-0-00-------00-------00-------00---------|
         * ** * * **       **       **       **

|------------------------------------------------|
|------------------------------------------------|
|-----------------7h10p7h10p7h10--6h9p6h9p6h9----|
|------------------------------------------------|
|------------------------------------------------|
|--0-00-0-0-00-0---------------------------------|
   * ** * * ** *

|-------------------------------------------------------|
|-------------------------------------------------------|
|-------------------------------------------------------|
|--------------------6h9p6----5h8p5----4h7p4------------|
|--5h8p5----------------------------------------5h8p5---|
|--------0-00-0-0-00-------00-------00-------00---------|
         * ** * * **       **       **       **

|-------------------------------|
|-------------------------------|
|-------------------------------|
|-------------------------------|
|---------------3-3-0--1-1-1----|
|--0-00-0-0-0-0-3-3-0--1-1-1----|
   * ** * * * *     *

|-------------------------------------------------------|
|-------------------------------------------------------|
|-------------------------------------------------------|
|--------------------6h9p6----5h8p5----4h7p4------------|
|--5h8p5----------------------------------------5h8p5---|
|--------0-00-0-0-00-------00-------00-------00---------|
         * ** * * **       **       **       **

|--------------------------------------------------------------------------|
|--------------------------------------------------------------------------|
|-----------------7h10p7h10p7h10-6h9p6h9p6h9-9h12p9h12p9h12-7h10p7h10p7h10-|
|--------------------------------------------------------------------------|
|--------------------------------------------------------------------------|
|--0-00-0-0-00-0-----------------------------------------------------------|
   * ** * * ** *


|------------------------------------------------------|
|------------------------------------------------------|
|------------------------------------------------------|
|------------------------------------------------------|  x4
|--00-00-00---00-00-0-0-0-0---00-00-0-3-3-3--1-1-1-----|
|--00-00-00---00-00-0-0-0-0---00-00-0-3-3-3--1-1-1-----|
   ** ** **   ** ** * * *     ** ** *

|------------------------------|
|------------------------------|
|------------------------------|
|--0-------------3--1----------|
|--0-------------3--1----------|
|--0-------------3--1----------|

|------------------------------------------|
|------------------------------------------|
|------------------------------------------|
|------------------------------------------|  x4
|--00-00-00---00-00---00-00-00---3--1------|
|--00-00-00---00-00---00-00-00---3--1------|
   ** ** **   ** **   ** ** **

  Chorus 1 (PLAY x3)
|--------------------------------------------------------------------------|
|---------------------------------------------------13-11-------11---------|
|---------------------------------------------------------14-12---14-12-10-|
|-----7---7h8-----7---7h8-----7h8p7-----7---7h8----------------------------|
|--------------------------------------------------------------------------|
|-0-0---0-----0-0---0-----0-0-------8-8---8-----8-8------------------------|
  * *   *     * *   *     * *       * *   *     * *

|----------------------------------------------------------------------------|
|---------------------------------------------------------------13h15p13-----|
|--------------------------------------------------------12h14h15-------14---|
|-----7---7h8----7---7h8----7h8p7-----7---7h8----12h14h15--------------------|
|----------------------------------------------------------------------------|
|-0-0---0----0-0---0----0-0-------8-8---8----8-8-----------------------------|
  * *   *    * *   *    * *       * *   *    * *

  Verse 4 (PLAY x2)
|-----------------------------------------------------------------------|
|------------------------13-11------------------------------------------|
|------------------------------14----------------------------------10---|
|-----7---7h8----7---7h8--------------7---7h8-----7---7h8--------12-----|
|----------------------------------------------------------10-12--------|
|-0-0---0----0-0---0--------------8-8---8-----8-8---8-------------------|
  * *   *    * *   *              * *   *     * *   *      *  *

|-----------------------------------------------------------|
|-----------------------------------------------------------|
|-----------------------------------------------------------|
|-----7---7h8-----7---7h8-----7h8p7-----7---7h8-------------|
|-----------------------------------------------------------|
|-5-5---5-----5-5---5-----5-5-------7-7---7-----7-7---------|
  * *   *     * *   *     * *       * *   *     * *

|----------------------------------------------|
|-----------------------------12h13h15---------|
|--------------------11h13h14------------------|
|-----------10h12h13---------------------------|
|--10h12h13------------------------------------|
|----------------------------------------------|


  (PLAY x2)  TAPS
|--17p13p10(x8)-18p13p10(x8)-------------------------------------------|
|----------------------------19p15p13(x8)-17p13p10(x4)-----------------|
|------------------------------------------------------17p14p12(x4)----|
|----------------------------------------------------------------------|
|----------------------------------------------------------------------|
|----------------------------------------------------------------------|


  Outro (PLAY x3)
|-------------------------------------------------------------------------|
|-------------------------------------------------------------------------|
|-------------------------------------------------------------------------|
|--19---19-19-19/20---20-20-20\19-19-19\17-17-17-17---17-17/15--15\17-----|
|-------------------------------------------------------------------------|
|-------------------------------------------------------------------------|

|------------------------|
|------------------------|
|--------------/19-------|
|---12/------------------|
|------------------------|
|------------------------|



THE END. PLEASE RATE AND COMMENT ON MY TAB. THANKS :)

            
            
Suggest correction
Creating personal tab
Creating personal tab
You can edit any tab online and save it as your Personal.

You can edit, replace or remove any tab part or add personal notes – all changes will be seen only by you.

Personal tabs can be accessed anytime from any device, even offline.
Learn more »
comments
print report bad tab
guest
You may want to rate the tab now too:
select rating
Wanna post a correction for this tab? Suggest correction