Oops, an error
Loading. Please wait.

For Stevie Wonders Eyes Only tab

version 1
version 1

Whole song

70,448 views 3 this week
32 commentsread comments
1 2 3 4 5
x 12
add to favorites
×
Save as Personal and add changes to this tab that will be seen only by you. Learn more ›
×
You can save this tab as Personal to edit and correct it or add notes. All changes will be seen only by you. Learn more »
launch autoscroll
font size
0
reset
how to read this tab
guitar tuner
edit
Autoscroll
slow
fast
+/-
esc
set tempo
stop
Author
Artist: Bring Me The Horizon
Song Title: For Stevie Wonder's Eyes Only
Album: Count Your Blessings

Tabbed By: Mark Webster

Tuning: Drop B

Its only guitar 1 but guitar 2 coming soon... its pretty much the same anyways.



--------------------------------------------------|
--------------------------------------------------|
--------------------------------------------------|
--------------------------------------------------|
-------------------------------8-8-8-8--7-7-7-7---|
-7-7--8-8--4-4--5-5--7-7--8-8---------------------|
 * *  * *  * *  * *  * *  * *  * * * *  * * * *

-----------------|--------------------------------|
-----------------|--------------------------------|
-----------------|x2]-----------------------------|
-----------------|------------5-7-8---------------|
-5-5--8p5--7p4---|------5-7-8---------------------|
-----------------|--------------------------------|
 * *

--------------------------------------------------|
--------------------------------------------------|
---------------------------------------7-8-10-----|
--------------------------5-7-8-7-8-10------------|
-5-5--8p5--7p4------5-7-8-------------------------|
----------------0-0-------------------------------|
 * *            * *

-----------------|--------------------------------|
-----------------|--------------------------------|
-----------------|x2]-----------------------------|
-----------------|------------5-7-8---------------|
-5-5--8p5--7p4---|------5-7-8---------------------|
-----------------|--------------------------------|
 * *

--------------------------------------------------|
--------------------------------------------------|
---------------------------------------7-8-10-----|
--------------------------5-7-8-7-8-10------------|
-5-5--8p5--7p4------5-7-8-------------------------|
----------------0-0-------------------------------|
 * *            * *


--------------------------------------------------|
--------------------------------------------------|
--------------------------------------------------|
--------------------------------------------------|
-5-------4-5---8---7----------4-------------------|
---0-0-0-----0---0---0-0-0--0---0-0-0--0----------|
   * * *     *   *   * * *  *   * * *  *


--------------------------------------------------|
--------------------------------------------------|
--------------------------------------------------|
--------------------------------------------------|
-------------------------------8-8-8-8--7-7-7-7---|
-7-7--8-8--4-4--5-5--7-7--8-8---------------------|
 * *  * *  * *  * *  * *  * *  * * * *  * * * *



--------------------------------------------------|
--------------------------------------------------|
--------------------------------------------------|
--------------------------------------------------|
-5-------4-5---8---7----------4-------------------|
---0-0-0-----0---0---0-0-0--0---0-0-0--0----------|
   * * *     *   *   * * *  *   * * *  *


--------------------------------------------------|
--------------------------------------------------|
--------------------------------------------------|
--------------------------------------------------|
-------------------------------8-8-8-8--7-7-7-7---|
-7-7--8-8--4-4--5-5--7-7--8-8---------------------|
 * *  * *  * *  * *  * *  * *  * * * *  * * * *


-------------------------------------------------------------|
-------------------------------------------------------------|
--------------------------------------7----------------------|
-5---0------------------7---8-7------------------------------|
---8----------------------8-----5-5-8------------------------|
--------0--0-0-0--0-0-0-----------------0-0--0-0-0--0-0-0----|
        *  * * *  * * *                 * *  * * *  * * *

-------------------------------------------------|
-------------------------------------------------|
-------------7-8-7-------------------------------|
-------5-7-8-------8-7-5-------------------------|
-5-7-8-------------------8-5---------------------|
-----------------------------0--0-0-0--0-0-0-----|
                             *  * * *  * * *

--------------------------------------------------|
--------------------------------------------------|
---------------7----------------------------------|
-7---8-7-----------------------------7-8-7-<5*>---|
---8-----5-5-8---------------------5--------------|
-----------------0-0--0-0-0--0-0-0----------------|
                 * *  * * *  * * *


-------------------------------------------------------------|
-------------------------------------------------------------|
--------------------------------------7----------------------|
-5---0------------------7---8-7------------------------------|
---8----------------------8-----5-5-8------------------------|
--------0--0-0-0--0-0-0-----------------0-0--0-0-0--0-0-0----|
        *  * * *  * * *                 * *  * * *  * * *

-------------------------------------------------|
-------------------------------------------------|
-------------7-8-7-------------------------------|
-------5-7-8-------8-7-5-------------------------|
-5-7-8-------------------8-5---------------------|
-----------------------------0--0-0-0--0-0-0-----|
                             *  * * *  * * *

--------------------------------------------------|
--------------------------------------------------|
---------------7----------------------------------|
-7---8-7-----------------------------7-8-7-<5*>---|
---8-----5-5-8---------------------5--------------|
-----------------0-0--0-0-0--0-0-0----------------|
                 * *  * * *  * * *


--------------------------------------------------|
--------------------------------------------------|
--------------------<7*>--------------------------|
---------7-8-7-<7*>-------------------------------|
-----7--------------------------------------------|
-0-0---0------------------------------------------|
 * *   *

--------------------------------------------------|
--------------------------------------------------|
------------------------------7-<5*>--------------|
---------7-8-7-<7*>-------------------------------|
-----7------------------5-4-5---------------------|\
-0-0---0------------0-0---------------------------| \
 * *   *            * *                              \
                                                      
                                                     /
--------------------------------------------------| /
--------------------------------------------------|/
----------------------------------------7---------|
---------7-8-7-<7*>-----------------4-7-----------|
-----7------------------5-4-5-4-5-7---------------|
-0-0---0------------0-0---------------------------|
 * *   *            * * * * * * * *

--------------------------------------------------|
--------------------------------------------------|
--------------------------------------------------|
-0-0--0-0--0--0-0--0-0--0-0-0-0-0-0---------------|
-0-0--0-0--0--0-0--0-0--0-0-0-0-0-0---------------|
-0-0--0-0--0--0-0--0-0--0-0-0-0-0-0---------------|
 * *  * *  *  * *  * *  * * * * * *

------|--------------------------------------------|
------|--------------------------------------------|
-10-9-|-------10-9------14-12-10-12----------------|
--x-x-|-------x--x-------x--x-x---x------------|
--8-7-|-------8--7------12-10-8--10----------------|
------|-0-0-0-----0-0-0----------------------------|
        * * *     * * *

---------------------|-----------------------------|
---------------------|-----------------------------|
---------------------|-----------------------------|
-----------------|-----------------------------|
---------------------|-12-10-8-10-8-7--------------|
-10-8-8-8-8-8-8------|-----------------------------|


-------------------------------------------------------------|
-------------------------------------------------------------|
----------------------------------10-9-7----7-9----7-9-10----|
-----------------------------------------10-----10-----------|
-------------------------------------------------------------|
-8-7-7-7-7-7-7-7-10-7-7-7-7-7-7-7----------------------------|


--------------------------------------------|
--------------------------------------------|
------10--9------14-12-10-12----------------|
-------x--x-------x--x--x--x------------|
-------8--7------12-10--8-10----------------|
-0-0-0-----0-0-0----------------------------|
 * * *     * * *


-17-15----17--------------------------------------------------------------|
-------18----18-17-18-17-15-17-15----15-----------------------------------|
----------------------------------17----17-16-17-16----16-----------------|
----------------------------------------------------19----19-17-19-17-16--|
--------------------------------------------------------------------------|
--------------------------------------------------------------------------|


-15-----------------------------------------------------------------------|
----17-14-17-14----14-----------------------------------------------------|
----------------15----15----15--------------------------------------------|
-------------------------17----17-14-17-14----14--------------------------|
-------------------------------------------16----16-13-16-13----13--------|
-------------------------------------------------------------17----17-14--|

-------------------------------------------------------------|
-------------------------------------------------------------|
--------------------------------------7----------------------|
-5---0------------------7---8-7------------------------------|
---8----------------------8-----5-5-8------------------------|\
--------0--0-0-0--0-0-0-----------------0-0--0-0-0--0-0-0----| \                   
        *  * * *  * * *                 * *  * * *  * * *       \
                                                                 \
-------------------------------------------------|                
-------------------------------------------------|               /
-------------7-8-7-------------------------------|       _______/
-------5-7-8-------8-7-5-------------------------|      /
-5-7-8-------------------8-5---------------------|     /
-----------------------------0--0-0-0--0-0-0-----|    /
                             *  * * *  * * *         /
                                                    /
--------------------------------------------------|/
--------------------------------------------------|
---------------7----------------------------------|
-7---8-7-----------------------------7-8-7-<5*>---|
---8-----5-5-8---------------------5--------------|
-----------------0-0--0-0-0--0-0-0----------------|
                 * *  * * *  * * *

--------------------------------------------------|
--------------------------------------------------|
--------------------------------------------------|
------0~------------------------------------------|
------0~------------------------------------------|
------0~------------------------------------------|


----------------------------------------------------|
----------------------------------------------------|
----------------------------------------------------|\______
----------------------------------------------------|       \
--8--5--8--5--8--5--7--|        \
----------------------------------------------------|         \
                                                              
                                                             /
-----------------------------------------------------------|/
-----------------------------------------------------------|
-----------------------------------------------------------|
-----------------------------------------------------------|
-4--7--4--7--4------------------------|
-------------------------------------8--5--7--|


----------------------------------------------------|
----------------------------------------------------|
----------------------------------------------------|\
----------------------------------------------------| \      
--8--5--8--5--8--5--7--|  \      
----------------------------------------------------|   \ 
                                                         
----------------------------------------------------|   /
----------------------------------------------------|  /
----------------------------------------------------| /
-------------------------------------8~--5~--7~-----|/
-4--7--4--7--4--8~--5~--7~-----|
-------------------------------------8~--5~--7~-----|


-------------------------------------------------------------------------------|
-------------------------------------------------------------------------------|
-------------------------------------------------------------------------------|
-0-0-0-0-----------0-0-0-0---------------------0-0-0-0------------4-4-4-1-1-1--|
-0-0-0-0-5h8p--0-0-0-0-5h8p--6h9p--0-0-0-0------------4-4-4-1-1-1--|
-0-0-0-0-----------0-0-0-0---------------------0-0-0-0-8h11p--4-4-4-1-1-1--|
 * * * *           * * * *                     * * * *           

--------------------------------------------------|
--------------------------------------------------|
------------------------------7-<5*>--------------|
---------7-8-7-<7*>-------------------------------|
-----7------------------5-4-5---------------------|\
-0-0---0------------0-0---------------------------| \
 * *   *            * *                              \
                                                      
                                                     /
--------------------------------------------------| /
--------------------------------------------------|/
----------------------------------------7---------|
---------7-8-7-<7*>-----------------4-7-----------|
-----7------------------5-4-5-4-5-7---------------|
-0-0---0------------0-0---------------------------|
 * *   *            * * * * * * * *


            
            
Suggest correction
Creating personal tab
Creating personal tab
You can edit any tab online and save it as your Personal.

You can edit, replace or remove any tab part or add personal notes – all changes will be seen only by you.

Personal tabs can be accessed anytime from any device, even offline.
Learn more »
comments
print report bad tab
32 comments total. Showing first comments.
+1 reply
confinedforever 977 Nov 14, 2006 02:51 AM

yo mark its jon casper, haha good tab but the power tab that is up is better, lol!! good job anyways! see ya when i get home were playin this song together!

0 reply
confinedforever 977 Nov 14, 2006 12:22 PM

btw im tabbing pray for plagues soon so look out for that!! =]

0 reply
choii 37 Nov 17, 2006 08:57 PM

you are a god

guest
You may want to rate the tab now too:
select rating
Wanna post a correction for this tab? Suggest correction