Oops, an error
Loading. Please wait.

It Was Written In Blood bass

version 1
version 1

Whole song

Interactive

8,709 views 3 this week
no commentswrite comment
1 2 3 4 5
x 5
add to favorites
×
Save as Personal and add changes to this tab that will be seen only by you. Learn more ›
×
You can save this tab as Personal to edit and correct it or add notes. All changes will be seen only by you. Learn more »
launch autoscroll
font size
0
reset
guitar tuner
edit
Autoscroll
slow
fast
+/-
esc
set tempo
stop
Bring Me The Horizon: It Was Written In Blood Tuning (C,G,C,F)
Intro/Verse (bass alone)
|-------------------------------------------------------------| 
|-------------------------------------------------------------| 
|-------------------------------------------------------------| 6x
|--0-12-0-12-12---0-12-0-12-12-12-12--0-8-0-8-8--5-5-5--1-1-1-| 

Chorus
|-------------------------------------------------------------| 
|-------------------------------------------------------------| 
|-------------------------------------------------------------| 2x
|--0-12-0-12-12---0-12-0-12-12-12-12--0-8-0-8-8--5-5-5--1-1-1-| 

Verse
|------------------------------------------------------------------| 
|------------------------------------------------------------------| 
|------------------------------------------------------------------| 3x
|--0-12-0-12-12---0-12-0-12-12-12-12--0-8-0-8-8--10-10-10-11-11-11-| 

|-----------------------------------------------------------------| 
|-----------------------------------------------------------------| 
|-----------------------------------------------------------------| 
|--0-12-0-12-12---0-12-0-12-12-12-12--0-8-0-8-8--10-10-10-11~-----| 

Pre-Chorus
|---------------------------------| 
|---------------------------------| 
|---------------------------------| 
|-8-8-8-8-8-8-8-8-8-8-8-8-8-8-8-8-|
|-------------------------------------------------|
|-------------------------------------------------|
|-------------------------------------------------|
|-10-10-10-10-10-10-10-10-10-10-10-10-10-10-10-10-|

Pause

Chorus
|-------------------------------------------------------------| 
|-------------------------------------------------------------| 
|-------------------------------------------------------------| 3x
|--0-12-0-12-12---0-12-0-12-12-12-12--0-8-0-8-8--5-5-5--1-1-1-| 

|---------------------------------------------------------------------| 
|---------------------------------------------------------------------| 
|---------------------------------------------------------------------| 
|--0-12-0-12-12---0-12-0-12-12-12-12--1-1-1-1-1-1-1-1-4-4-4-4-4-4-4-4-| 

Long Pause

Bridge
|------------------------------------------------------------------| 
|------------------------------------------------------------------| 
|---------------------------------3-3-3-3-3-3-3-3-6-6-6-6-6-6-6-6--| 4x
|-5-5-5-5-5-5-5-5-5-5-5-5-5-5-5-5----------------------------------|

Repeat: Pre-Chorus
             
Pause

Final Chorus
|-------------------------------------------------------------| 
|-------------------------------------------------------------| 
|-------------------------------------------------------------| 3x
|--0-12-0-12-12---0-12-0-12-12-12-12--0-8-0-8-8--5-5-5--1-1-1-| 

|---------------------------------------------------------------| 
|---------------------------------------------------------------| 
|---------------------------------------------------------------| 
|--0-12-0-12-12---0-12-0-12-12-12-12--0-8-0-8-8-1-1-1-1-4-4-4-4-| 

Outro (Repeat until completely faded out)
|------------------------------------------------------------------| 
|------------------------------------------------------------------| 
|---------------------------------3-3-3-3-3-3-3-3-6-6-6-6-6-6-6-6--| 
|-5-5-5-5-5-5-5-5-5-5-5-5-5-5-5-5----------------------------------|

            
            
Suggest correction
Creating personal tab
Creating personal tab
You can edit any tab online and save it as your Personal.

You can edit, replace or remove any tab part or add personal notes – all changes will be seen only by you.

Personal tabs can be accessed anytime from any device, even offline.
Learn more »
comments
print report bad tab
guest
You may want to rate the tab now too:
select rating
Wanna post a correction for this tab? Suggest correction