Oops, an error
Loading. Please wait.

Pray For Plagues bass

version 1
version 1

Whole song

40,374 views 15 this week
3 commentsread comments
1 2 3 4 5
x 5
add to favorites
×
Save as Personal and add changes to this tab that will be seen only by you. Learn more ›
×
You can save this tab as Personal to edit and correct it or add notes. All changes will be seen only by you. Learn more »
launch autoscroll
font size
0
reset
guitar tuner
edit
Autoscroll
slow
fast
+/-
esc
set tempo
stop
  Pray For Plagues                                 


                                                            Bring Me The Horizon
Bass



      Q    Q    Q    Q       E  E  E  E  S S E  S S E   
E ||----------------------|----------------------------|
B ||----------------------|-----3--0-------2------1----|
F#||----------------------|--------------4---4--3---3--|
B ||--1----4----3----1----|--0--------0----------------|


  E  E  S   S  E  E  E  S  S  E     W                 
---------------------------------|-------------------|
--------7h-10p-7--------6h-9p-6--|-------------------|
---------------------------------|-------------------|
--0--0------------0--0-----------|-------------------|


  |---3--|  |---3--|  |---3---|                                                
  E  E   E  E  E   E  E   E   E  Q       W                   W                 
----------------------8--10--11-------|-------------------|-------------------|
------------7--9--10------------------|-------------------|-------------------|
--7--9--10----------------------------|-------------------|-------------------|
--------------------------------------|--0----------------|--L----------------|


  W                    W                   W                 
-------------------|--------------------|-------------------|
-------------------|--------------------|-------------------|
-------------------|--------------------|-------------------|
--0----------------|--18----------------|--0----------------|


  W                   W                   Q    Q    Q    Q             
-------------------|-------------------|----------------------|-------|
-------------------|-------------------|----------------------|-------|
-------------------|-------------------|----------------------|-------|
--L----------------|--0----------------|--0----0----0----0----|-------|


  Q    E   E  Q    E  E     E  E  E  E  E  E  Q       Q    E   E  Q    E  E   
-------------------------|-------------------------|-------------------------|
-------------------------|-----------3-------------|-------------------------|
-------5h--8--4----------|--5-----------------6----|-------5h--8--4----------|
--0----------------0--0--|-----0--0-----0--0-------|--0----------------0--0--|


  E  E  E  E  E  E  Q       Q    E   E  Q    E  E     E  E  E  E  E  E  Q     
-------------------------|-------------------------|-------------------------|
--7--------6-------------|-------------------------|-----------3-------------|
--------------------8----|-------5h--8--4----------|--5-----------------6----|
-----0--0-----0--0-------|--0----------------0--0--|-----0--0-----0--0-------|


  Q    E   E  Q    E  E     E  E  E  E  E  E  Q       Q    E  E  Q    E  E   
-------------------------|-------------------------|------------------------|
-------------------------|--7--------6-------------|------------------------|
-------5h--8--4----------|--------------------8----|------------------------|
--0----------------0--0--|-----0--0-----0--0-------|--0---------------0--0--|


  Q    Q    E  E  E  E     Q    E  E  Q    E  E     Q    Q    E  E  E  E   
------------------------|------------------------|------------------------|
------------------------|------------------------|------------------------|
------------------------|------------------------|------------------------|
------------0--0--------|--0---------------0--0--|------------0--0--------|


  Q    E  E  Q    E  E     Q    Q    E  E  E  E     Q    E  E  Q    E  E   
------------------------|------------------------|------------------------|
------------------------|------------------------|------------------------|
------------------------|------------------------|------------------------|
--0---------------0--0--|------------0--0--------|--0---------------0--0--|


  Q    Q    E  E  E  E     Q    E   E  Q    E  E     E  E  E  E  E  E  Q     
------------------------|-------------------------|-------------------------|
------------------------|-------------------------|-----------3-------------|
------------------------|-------5h--8--4----------|--5-----------------6----|
------------0--0--------|--0----------------0--0--|-----0--0-----0--0-------|


  Q    E   E   Q    E  E     E  E  E  E  E  E  Q       Q    E   E  Q    E  E   
--------------------------|-------------------------|-------------------------|
--------------------------|--7--------6-------------|-------------------------|
-------5h--8p--4----------|--------------------8----|-------5h--8--4----------|
--0-----------------0--0--|-----0--0-----0--0-------|--0----------------0--0--|


  E  E  E  E  E  E  Q       Q    E   E  Q    E  E     E  E  E  E  E  E  Q     
-------------------------|-------------------------|-------------------------|
-----------3-------------|-------------------------|--7--------6-------------|
--5-----------------6----|-------5h--8--4----------|--------------------8----|
-----0--0-----0--0-------|--0----------------0--0--|-----0--0-----0--0-------|


  Q    E   E   Q    E  E     E  E  E  E  E  E  Q       Q    E   E   Q    E  E   
--------------------------|-------------------------|--------------------------|
--------------------------|-------------------------|--------------------------|
-------5h--8p--4----------|--5--------8--------6----|-------5h--8p--4----------|
--0-----------------0--0--|-----0--0-----0--0-------|--0-----------------0--0--|


  S  S E  E  S  S E  E  S  E.     Q    E   E   Q    E  E   
-------------------------------|--------------------------|
-------------------------------|--------------------------|
--4h-7-------5h-8-------6h-9---|-------5h--8p--4----------|
-------0--0-------0--0---------|--0-----------------0--0--|


  E  E  E  E  E  E  Q       Q    E   E   Q    E  E   
-------------------------|--------------------------|
-------------------------|--------------------------|
--5--------8--------6----|-------5h--8p--4----------|
-----0--0-----0--0-------|--0-----------------0--0--|


  S  S E  E  S  S E  E  S  E.     E  E  E  E  E  E  E  E   
-------------------------------|--------------------------|
-------------------------------|--------------------------|
--4h-7-------5h-8-------6h-9---|--5--------7--------8-----|
-------0--0-------0--0---------|-----0--0-----0--0-----0--|


  E  E  E  E  S S E  S S E        Q     S S E  S S E     Q        E  E  E   E   
----------------------------|----------------------------------|---------------|
----------------------------|----------------------------------|---------------|
-----4----------------------|--<>14s------------------<>12s----|--5--4---------|
--0-----0--0--0-0-0--0-0-0--|-----------0-0-0--0-0-0-----------|--------4p--3--|


  E  E  E  E  E  E  E  E     E  E  E  E  S S E  S S E   
--------------------------|----------------------------|
--------------------------|----------------------------|
--5--------7--------8-----|-----4----------------------|
-----0--0-----0--0-----0--|--0-----0--0--0-0-0--0-0-0--|


     Q     S S E  S S E     Q        E  E  E   E     H        H         
----------------------------------|---------------|--------------------|
----------------------------------|---------------|--------------------|
--<>14s------------------<>12s----|--5--4---------|--------------------|
-----------0-0-0--0-0-0-----------|--------4p--3--|--1--------4--------|


  H        Q    Q               S E  S E  E  E  E  E  E   
---------------------|-------|---------------------------|
---------------------|-------|---------------------------|
---------------------|-------|---------------------------|
--5--------1----1----|-------|--0-0--0-0-----------------|


  E  S S S S S S S S S S S S S S    S S S S S S S S E  Q    E   
---------------------------------|-----------------------------|
---------------------------------|-----------------------------|
---------------------------------|------------------0----------|
-----0---0-0---0-0-0---0-0-0-----|--0-0-0-0-0-0-0-0------------|


  |----3----|    |----3----|                                 
  Q    Q    Q    Q    Q    Q       S E  S E  E  E  E  E  E   
--------------------------------|---------------------------|
--------------------------------|---------------------------|
--------------------------------|---------------------------|
--3----1----0----4----3----1----|--0-0--0-0-----------------|


  E  S S S S S S S S S S S S S S    S S S S S S S S E  Q    E   
---------------------------------|-----------------------------|
---------------------------------|-----------------------------|
---------------------------------|------------------0----------|
-----0---0-0---0-0-0---0-0-0-----|--0-0-0-0-0-0-0-0------------|


  |----3----|    |----3----|                                 
  Q    Q    Q    Q    Q    Q       S E  S E  E  E  E  E  E   
--------------------------------|---------------------------|
--------------------------------|---------------------------|
--------------------------------|---------------------------|
--3----1----0----4----3----1----|--0-0--0-0-----------------|


  S E  S E  E  E  E  E  E     E  S S S S S S S S S S S S S S  
---------------------------|---------------------------------|
---------------------------|---------------------------------|
---------------------------|---------------------------------|
--0-0--0-0-----------------|-----0---0-0---0-0-0---0-0-0-----|


                                |----3----|    |----3----|     
  S S S S S S S S E  Q    E     Q    Q    Q    Q    Q    Q     
-----------------------------|--------------------------------|
-----------------------------|--------------------------------|
------------------0----------|--------------------------------|
--0-0-0-0-0-0-0-0------------|--3----1----0----4----3----1----|


  S E  S E  E  E  E  E  E     E  S S S S S S S S S S S S S S  
---------------------------|---------------------------------|
---------------------------|---------------------------------|
---------------------------|---------------------------------|
--0-0--0-0-----------------|-----0---0-0---0-0-0---0-0-0-----|


  S S S S S S S S E  Q    E     W                   W                 
-----------------------------|-------------------|-------------------|
-----------------------------|-------------------|-------------------|
------------------0----------|-------------------|-------------------|
--0-0-0-0-0-0-0-0------------|-------------------|--0----------------|


  W                   W                   W                   W                 
-------------------|-------------------|-------------------|-------------------|
-------------------|-------------------|-------------------|-------------------|
-------------------|-------------------|-------------------|-------------------|
--L----------------|--L----------------|--L----------------|--0----------------|


  W                   W                   E  E  E  E  E  E  E  E   
-------------------|-------------------|--------------------------|
-------------------|-------------------|--------------------------|
-------------------|-------------------|--------------------------|
--L----------------|--L----------------|--------------0--0--------|


  E  E  E  E  E  E  E  E     E  E  E  E  E  E  E  E     Q    Q    Q    E  E   
--------------------------|--------------------------|-----------------------|
--------------------------|--------------------------|-----------------------|
--------------------------|--------------------------|-----------------------|
--0--0--------------0--0--|--------------0--0--------|-----------------0--0--|


          E  E  E   E   Q    E  E     E   E   Q    E  E  E   E   
-------|---------------------------|----------------------------|
-------|---------------------------|----------------------------|
-------|--------9p--6h--9----------|--8p--6h--8----------3h--5--|
-------|--0--0---------------0--0--|---------------0--0---------|


  E  E   E  E    Q    E  E      E  E    Q    E  E   E    E   
----------------------------|-------------------------------|
------------9h--12----------|------8h--11-------------------|
--------12------------------|--11---------------------------|
--0--0----------------0--0--|----------------0--0--10h--12--|


  E  E  E   E   Q    E  E     E   E   Q    E  E  E   E   
---------------------------|----------------------------|
---------------------------|----------------------------|
--------9p--6h--9----------|--8p--6h--8----------3h--5--|
--0--0---------------0--0--|---------------0--0---------|


  E  E   E  E    Q    E  E      E  E    Q    E  E   E    E   
----------------------------|-------------------------------|
------------9h--12----------|------8h--11-------------------|
--------12------------------|--11---------------------------|
--0--0----------------0--0--|----------------0--0--10h--12--|


                                 ---   ---                             
  E.  E.  E.  E.  E  E                               W                 
------------------------|-----|-----|-----|-------|-------------------|
------------------------|-----|-----|-----|-------|-------------------|
------------------------|-----|-----|-----|-------|-------------------|
--0---0---0---0---------|-----|-----|-----|-------|--0----------------|


  W                   W                   W                 
-------------------|-------------------|-------------------|
-------------------|-------------------|-------------------|
-------------------|-------------------|-------------------|
--L----------------|--L----------------|--6----------------|


  H         H           W                   W                 
---------------------|-------------------|-------------------|
---------------------|-------------------|-------------------|
---------------------|-------------------|-------------------|
--L--------18--------|-------------------|--0----------------|


  W                   W                   W                 
-------------------|-------------------|-------------------|
-------------------|-------------------|-------------------|
-------------------|-------------------|-------------------|
--L----------------|--L----------------|--6----------------|


  H         H           W                 
---------------------|-------------------|
---------------------|-------------------|
---------------------|-------------------|
--L--------18--------|-------------------|


   S  S  S  S  S  S  S  S  S  S  S  S  S  S  S  S  
--------------------------------------------------|
--------------------------------------------------|
--------------------------------------------------|
--12-12-12-12-12-12-12-12-12-12-12-12-12-12-12-12-|


   S  S  S  S  S  S  S  S  S  S  S  S  S  S  S  S  
--------------------------------------------------|
--------------------------------------------------|
--------------------------------------------------|
--12-12-12-12-12-12-12-12-12-12-12-12-12-12-12-12-|


   S  S  S  S  S  S  S  S  S  S  S  S  S  S  S  S  
--------------------------------------------------|
--------------------------------------------------|
--12-12-12-12-12-12-11-11-11-11-11-11-11-11-11-11-|
--------------------------------------------------|


                           |-----3-----|        |-----3----|               
   S  S  S  S  S  S  S  S  Q     Q     Q        Q    Q     Q     H         
--------------------------------------------|-----------------------------|
--------------------------------------------|--10----9--------------------|
--11-11-11-11-11-11-11-11-------11----------|-------------------11--------|
--------------------------12----------12----|-------------12--------------|


  W                   E  E  E  E  E  E  E  E     E  E  E  E  E  E  E  E    
-------------------|--------------------------|---------------------------|
-------------------|--------------7-----------|-----------------------7b--|
-------------------|--------------------------|---------------------------|
--L----------------|--0--3--2--0-----0--3--2--|--0--8--7--0--3--2--0------|


  E  E  E  E  E  E  E  E     E  E  E  E   E  E  E  E   
--------------------------|---------------------------|
--------------7-----------|-----7--6-----10-----6--6--|
--------------------------|---------------------------|
--0--3--2--0-----0--3--2--|--0--------0------0--------|


  E  E  E  E  E  E  E  E     E  E  E  E  E  E  E  E    
--------------------------|---------------------------|
--------------7-----------|-----------------------7b--|
--------------------------|---------------------------|
--0--3--2--0-----0--3--2--|--0--8--7--0--3--2--0------|


  E  E  E  E  E  E  E  E          E  E  E  E  H         
--------------------------|----|-----------------------|
--------------7-----------|----|-----------------------|
--------------------------|----|-----------------------|
--0--3--2--0-----0--3--2--|----|--0--3--2--0-----------|


  E  E  E  E  E  E  E  E     E  E  E  E  H           E  E  E  E  E  E  E  E   
--------------------------|-----------------------|--------------------------|
--------------------------|-----------------------|--------------------------|
--------------------------|-----------------------|--------------------------|
--0--3--2--0--8--0--0-----|--0--3--2--0-----------|--0--3--2--0--8--0--0-----|


  E  E  E  E  H           E  E  E  E  E  E  E  E     E  E  E  E  H         
-----------------------|--------------------------|-----------------------|
-----------------------|--------------------------|-----------------------|
-----------------------|--------------------------|-----------------------|
--0--3--2--0-----------|--0--3--2--0--8--0--0-----|--0--3--2--0-----------|


  E  E  E  E     E  E  E  E  S S E  S S E     E  E  S   S  E  E  E  S  S  E   
--------------|----------------------------|---------------------------------|
--------------|----------------------------|--------7h-10p-7--------6h-9p-6--|
--------------|-----9--6-----5-8-5--4-7-4--|---------------------------------|
--0--3--2--0--|--0--------0----------------|--0--0------------0--0-----------|


                  Q    E   E  Q    E  E     E  E  E  E  E  E  Q     
-------|-------|-------------------------|-------------------------|
-------|-------|-------------------------|-----------3-------------|
-------|-------|-------5h--8--4----------|--5-----------------6----|
-------|-------|--0----------------0--0--|-----0--0-----0--0-------|


  Q    E   E  Q    E  E     E  E  E  E  E  E  Q       Q    E   E  Q    E  E   
-------------------------|-------------------------|-------------------------|
-------------------------|--7--------6-------------|-------------------------|
-------5h--8--4----------|--------------------8----|-------5h--8--4----------|
--0----------------0--0--|-----0--0-----0--0-------|--0----------------0--0--|


  E  E  E  E  E  E  Q       Q    E   E  Q    E  E     E  E  E  E  E  E  Q     
-------------------------|-------------------------|-------------------------|
-----------3-------------|-------------------------|--7--------6-------------|
--5-----------------6----|-------5h--8--4----------|--------------------8----|
-----0--0-----0--0-------|--0----------------0--0--|-----0--0-----0--0-------|


  Q    E   E  Q    E  E     E  E  E  E  E  E  Q       Q    E   E  Q    E  E   
-------------------------|-------------------------|-------------------------|
-------------------------|-----------3-------------|-------------------------|
-------5h--8--4----------|--5-----------------6----|-------5h--8--4----------|
--0----------------0--0--|-----0--0-----0--0-------|--0----------------0--0--|


  E  E  E  E   E  E  E  E     Q    E   E  Q    E  E     E  E  E  E  E  E  Q     
---------------------------|-------------------------|-------------------------|
---------------------------|-------------------------|-----------3-------------|
--6--9-----7--10-----5--8--|-------5h--8--4----------|--5-----------------6----|
--------0---------0--------|--0----------------0--0--|-----0--0-----0--0-------|


  Q    E   E  Q    E  E     E  E  E  E   E  E  E  E     W                 
-------------------------|---------------------------|-------------------|
-------------------------|---------------------------|-------------------|
-------5h--8--4----------|--6--9-----7--10-----5--8--|-------------------|
--0----------------0--0--|--------0---------0--------|--0----------------|


  W                   W                   W                   W                 
-------------------|-------------------|-------------------|-------------------|
-------------------|-------------------|-------------------|-------------------|
-------------------|-------------------|-------------------|-------------------|
--L----------------|--L----------------|--L----------------|--0----------------|


                                          |----3----|    |----3----|     
  W                   W                   Q    Q    Q    Q    Q    Q     
-------------------|-------------------|--------------------------------|
-------------------|-------------------|--------------------------------|
-------------------|-------------------|--------------------------------|
--L----------------|--L----------------|--3----1----0----4----3----1----|


                  -----   |----3----|    |----3----|     
                          Q    Q    Q    Q    Q    Q     
-------|-------|-------|--------------------------------|
-------|-------|-------|--------------------------------|
-------|-------|-------|--------------------------------|
-------|-------|-------|--3----1----0----4----3----1----|


  Q    E  E  E  E  E  E     Q    E  E  E  E  E   E     Q    E  E  E  E  E  E   
-------------------------|--------------------------|-------------------------|
-------------------------|--------------------------|-------------------------|
-------------5--8-----4--|-------------5--8-----11--|-------------5--8--------|
--0----0--0--------0-----|--L----0--0--------0------|--L----0--0--------0--0--|


          Q    E  E  E  E  E  E     Q    E  E  E  E  E   E   
-------|-------------------------|--------------------------|
-------|-------------------------|--------------------------|
-------|-------------5--8-----4--|-------------5--8-----11--|
-------|--0----0--0--------0-----|--L----0--0--------0------|


                            |----3----|    |----3----|     
  Q    E  E  E  E  E  E     Q    Q    Q    Q    Q    Q     
-------------------------|--------------------------------|
-------------------------|--------------------------------|
-------------5--8--------|--------------------------------|
--L----0--0--------0--0--|--3----1----0----4----3----1----|


  Q    E  E  E  E  E  E     Q    E  E  E  E  E   E     Q    E  E  E  E  E  E   
-------------------------|--------------------------|-------------------------|
-------------------------|--------------------------|-------------------------|
-------------5--8-----4--|-------------5--8-----11--|-------------5--8--------|
--0----0--0--------0-----|--L----0--0--------0------|--L----0--0--------0--0--|


          Q    E  E  E  E  E  E     Q    E  E  E  E  E   E   
-------|-------------------------|--------------------------|
-------|-------------------------|--------------------------|
-------|-------------5--8-----4--|-------------5--8-----11--|
-------|--0----0--0--------0-----|--L----0--0--------0------|


                            |----3----|    |----3----|             
  Q    E  E  E  E  E  E     Q    Q    Q    Q    Q    Q             
-------------------------|--------------------------------|-------|
-------------------------|--------------------------------|-------|
-------------5--8--------|--------------------------------|-------|
--L----0--0--------0--0--|--3----1----0----4----3----1----|-------|


  E  E  E  E  H           E  E  E  E  E  E  E  E     E  E  E  E  H         
-----------------------|--------------------------|-----------------------|
-----------------------|--------------------------|-----------------------|
-----------------------|--------------------------|-----------------------|
--0--3--2--0-----------|--0--3--2--0--8--0--0-----|--0--3--2--0-----------|


  E  E  E  E  E  E  Q       E  E  E  E  H           E  E  E  E  E  E  E  E   
-------------------------|-----------------------|--------------------------|
-------------------------|-----------------------|--------------------------|
-------------------------|-----------------------|--------------------------|
--0--3--2--0--8--0-------|--0--3--2--0-----------|--0--3--2--0--8--0--0-----|


  E  E  E  E  H           E  E  E  E  E  E  Q       E  E  E  E  H          
-----------------------|-------------------------|-----------------------||
-----------------------|-------------------------|-----------------------||
-----------------------|-------------------------|-----------------------||
--0--3--2--0-----------|--0--3--2--0--8--0-------|--0--3--2--0-----------||




Duration Legend
---------------
W - whole
H - half
Q - quarter
E - 8th
S - 16th
T - 32nd
X - 64th
. - note dotted
|-n-|  - n-tuplets


Tablature Legend
----------------
L - tied note
x - dead note
g - grace note
(n) - ghost note
> - accentuded note
NH - natural harmonic
AH - artificial harmonic
TH - tapped harmonic
SH - semi harmonic
PH - pitch harmonic
h - hammer on
p - pull off
b - bend
br - bendRelease
pb - preBend
pbr - preBendRelease
brb - bendReleaseBend
\n/ - tremolo bar dip
\n - tremolo bar dive
-/n - tremolo bar Release up
/n\ - tremolo bar inverted dip
/n - tremolo bar return
-\n - tremolo bar Release down
S - shift slide
s - legato slide
/ -  slide into from below or out of upwards
\ -  slide into from above or out of downwards
~ - vibrato
W - wide vibrato
tr - trill
TP - tremolo picking
T - tapping
S - slap
P - pop
< - fade in
^ - brush up
v - brush down

            
            
Suggest correction
Creating personal tab
Creating personal tab
You can edit any tab online and save it as your Personal.

You can edit, replace or remove any tab part or add personal notes – all changes will be seen only by you.

Personal tabs can be accessed anytime from any device, even offline.
Learn more »
comments
print report bad tab
3 comments total.
0 reply
sweet<>dreams 51 Mar 06, 2008 10:38 AM

FINALLY!!!!
SOME ONE MADE A TAB!!!
nice job man

0 reply
WeLoveBasses 10 May 23, 2008 01:56 AM

hey, can anyone explane all these things like prb and stuff mean? I'm kinda new to tabs, but i can play bass.

X Sha

0 reply
BassFreak98 72 Jan 22, 2013 03:54 PM

so...damn....difficult...

guest
You may want to rate the tab now too:
select rating
Wanna post a correction for this tab? Suggest correction