Oops, an error
Loading. Please wait.

Pray For Plagues bass

version 3
version 3

Whole song

12,453 views 3 this week
4 commentsread comments
1 2 3 4 5
x 3
add to favorites
×
Save as Personal and add changes to this tab that will be seen only by you. Learn more ›
×
You can save this tab as Personal to edit and correct it or add notes. All changes will be seen only by you. Learn more »
launch autoscroll
font size
0
reset
guitar tuner
edit
Autoscroll
slow
fast
+/-
esc
set tempo
stop
This is the proper and full version of Pray For Plagues..

Intro:
-------------------------|
-------------------------|
------------|GUITARS|----|
1-4-3-1-0----------------|


Verse:
----------------------------------|
----------------------------------|
----------------------------------|
---------0~------0-----0~--0~-0-0-|

-----------------------------------------------------------|
-----------------------------------------------------------|
------5-8-4------5----8-----6------5-8-4------12---11—8----|   x2
---0--------0-0-----0----0-------0---------00----0---0-----|

----------------------------------------|
----------------------------------------|
----------------------------------------|
----00-00-00-00-00-00-00-00-00-00-00----|

-----------------------------------------------------------|
-----------------------------------------------------------|
------5-8-4------5----8-----6------5-8-4------12---11—8----|   x4
---0--------0-0-----0----0-------0---------00----0---0-----|

---------------------------------------------------|
---------------------------------------------------|
--5----7----8----4---------------------------------|
----00---00---00---00-00-00------00-00-----00-00---|

-----------------------------------------------------|
-----------------------------------------------------|
--5----7----8----4-------------------------5-4-------|
----00---00---00---00-00-00------00-00---------4-3---|

Break down: 1
------------------------------|
------------------------------|
------------------------------|
-1--4---5--1-1-1--------------|

-------------------------------|
-------------------------------|
-------------------------------| x4
Zeros-here------3-1-0-4-3-1----|
 

Kill your fucking…
--------------------------------------------------------------|
--------------------------------------------------------------|
--------------------------------------------------------------|
--0~------0~----00-00-00-00-00-00-00-00-00-00-00-00--ect------| 
(Just a lot of opens played for a long period of time)

Sweep solo
--------------------------------------------------------------|
-----------------------------------------------6~-------------|
--------------------------------------------------------------|
--0--12/-----------0~------------6~---------------------------|

--------------------------------------------------------|
--------------------------------------------------------|
----55555555555---1212121212121212-1111111111111--------|
--------------------------------------------------------|

------------------|
------10-9--------|
-------------11~--|
-0-12------0------|


 Breakdown: 2
------------------------------------------------------------|
------------------------------------------------------------|
------5-----------------------------5-----------------------|
-0320-----0320--032---065-32---0320----0320--032-065--32----|


Guitars do there thing the back to,
Verse:
-----------------------------------------------------------|
-----------------------------------------------------------|
------5-8-4------5----8-----6------5-8-4------12---11—8----|   x4
---0--------0-0-----0----0-------0---------00----0---0-----|



-------------------------------------------------------|
-------------------------------------------------------|
-------------------------------------------------------|
-0~-----0~---------{GUITARS}----------3-1-0-4-3-1------|

-------------------------------------------------------|
------------------------6------------------------------|
----------5-8-4-----5-8-------5-8-4--------------------|x4
--------00--------00--------0---------3-1-0-4-3-1------|

Outro:
-------------------------|
-------------------------|
---------------5---------|
-0320------032-----------|x4



            
            
Suggest correction
Creating personal tab
Creating personal tab
You can edit any tab online and save it as your Personal.

You can edit, replace or remove any tab part or add personal notes – all changes will be seen only by you.

Personal tabs can be accessed anytime from any device, even offline.
Learn more »
Give kudos to tab author, rate the tab!
1 2 3 4 5
comments
print report bad tab
4 comments total. Showing first comments.
0 reply
execution_666 365 Jul 06, 2008 06:05 PM

Cool tab, but he says "Count your ****ing".

0 reply
lachyray 153 Jul 08, 2008 03:47 AM

my bad i just guessed that one
didnt bother checking

0 reply
jak_daniels 20 Sep 03, 2008 09:32 AM

looks good. the other one made my head spin.

guest
You may want to rate the tab now too:
select rating
Wanna post a correction for this tab? Suggest correction