Oops, an error
Loading. Please wait.
We have an official Sleepwalking tab made by UG professional guitarists. Check out the tab »
×
6,581 views 27 this week
no commentswrite comment
1 2 3 4 5
x 5
add to favorites
×
Save as Personal and add changes to this tab that will be seen only by you. Learn more ›
×
You can save this tab as Personal to edit and correct it or add notes. All changes will be seen only by you. Learn more »
launch autoscroll
font size
0
reset
how to read this tab
guitar tuner
edit
Autoscroll
slow
fast
+/-
esc
set tempo
stop
SLEEPWALKING by Bring Me The Horizon

Chorus/Main Riff
                                        EEEEE SSSS
E|--------------------------------------------------|
B|--------------------------------------------------|
G|--------------------------------------------------|
D|-8-88-88-8888--5555555--0-00-00-0000--33333-3333--| [2x]
A|-8-88-88-8888--5555555--0-00-00-0000--33333-3333--|
D|-8-88-88-8888--5555555--0-00-00-0000--33333-3333--|


[0:39] - [0:50]
E|----------------------------------------------|
B|----------------------------------------------|
G|----------------------------------------------|
D|----8888-------555-0000----3333---------------|  [2x]
A|----8888-------555-0000----3333---------------|
D|----8888-------555-0000----3333---------------|

Bridge 1
B|---------------------|----------------|------------------|----------------|
G|---------------------|----------------|------------------|----------------|
D|---------------------|----------------|------------------|----------------|
A|---------------------|----------------|------------------|----------------|
D|-0-000-0-0-0-000-0-0-|0--00-0-0-0-0-0-|0----00-0-000-0-0-|0---00-0-0-0-0-0|
     ...   .   ...   .     ..   .   .         ..   ...   .      ..   .   .
B|---------------------|---------------|--------------------|--------------|
G|---------------------|---------------|--------------------|--------------|
D|---------------------|---------------|--------------------|--------------|
A|---------------------|---------------|--------------------|--------------|
D|-0-000-0-0-0---------|--00-0-0-0-0-0-|0-000-0-0--0-000-0-0|0--00-0-0-0-00|
     ...   .              ..   .   .      ...   .    ...   .    ..   .   ..

[1:43] - [2:10]
E|-----------------------------------------------|
B|-----------------------------------------------|
G|-----------------------------------------------|
D|-8-88-88-8888--5555555--0-00-00-0000--3333333--| [3x]
A|-8-88-88-8888--5555555--0-00-00-0000--3333333--|
D|-8-88-88-8888--5555555--0-00-00-0000--3333333--|

E|-----------------------------------------------|
B|-----------------------------------------------|
G|-----------------------------------------------|
D|-8-88-88-8888--5555555--0-00-00-0000--11111----|
A|-8-88-88-8888--5555555--0-00-00-0000--11111----|
D|-8-88-88-8888--5555555--0-00-00-0000--11111----|


Bridge 2

E|-----------------------------|------------------------------|
B|-----------------------------|------------------------------|
G|---------------7-----7-------|------------7-----------------|
D|---------------6-----6-------|------------6-----------------|
A|---------------5-----5-------|------------5-------66663333--|
D|-000-000-0-1-0---000---000-0-|1-0-11-4-1-0---0000-----------|
   ..  ..  .       ..    ..         ..         ...  ........

E|-----------------------------|------------------------------|
B|-----------------------------|------------------------------|
G|---------------7-----7-------|------------------------------|
D|---------------6-----6-------|------------------------------|
A|---------------5-----5-------|---------------------66663333-|
D|-000-000-0-1-0---000---000-0-|1-0-11-4-1-0---000-00---------|
   ..  ..  .       ..    ..         ..         ..  ..........

. palm mute
E eighth note
S sixteenth note

For Bridge 2, I'm not absolutely sure about the palm mutings. Play the last eight notes 
(the 66663333-part) of each line with a weak palm mute. For the part from 0:39 to 0:50, 
the rhythm can vary.

            
            
Suggest correction
Creating personal tab
Creating personal tab
You can edit any tab online and save it as your Personal.

You can edit, replace or remove any tab part or add personal notes – all changes will be seen only by you.

Personal tabs can be accessed anytime from any device, even offline.
Learn more »
comments
print report bad tab
guest
You may want to rate the tab now too:
select rating
Wanna post a correction for this tab? Suggest correction