Oops, an error
Loading. Please wait.

Suicide Seasonn bass

5,222 views 3 this week
1 commentread comment
1 2 3 4 5
x 7
add to favorites
×
Save as Personal and add changes to this tab that will be seen only by you. Learn more ›
×
You can save this tab as Personal to edit and correct it or add notes. All changes will be seen only by you. Learn more »
launch autoscroll
font size
0
reset
guitar tuner
edit
Autoscroll
slow
fast
+/-
esc
set tempo
stop
-----------------------------------------------------------------------------
		     Suicide Season - Bring Me The Horizon
-----------------------------------------------------------------------------

Tabbed By : Strawberry Evans
e-mail: xCircax@mail.ru

Tuning: Drop A




|-------------------------------|-------------------------------|
|-------------------------------|-------------------------------|
|-------------------------------|-------------------------------|
|--10(x32)----6(x16)----3(x16)--|--10(x32)----6(x16)----3(x16)--|


|-------------------------------|-------------------------------|
|-------------------------------|-------------------------------|
|-------------------------------|-------------------------------|
|--10~--------------------------|--6~------------3~-------------|


|-------------------------------|-------------------------------|
|-------------------------------|-------------------------------|
|-------------------------------|-------------------------------|
|--10~--------------------------|--6~------------3~-------------|



|--------------------------------------|----------------------------|
|--------------------------------------|----------------------------|
|--------------------------------------|----------------------------|
|--13(x16)--12(x16)--17(x16)--10(x16)--|--13(x16)--13(x16)----------|


|-------------------------------|-------------------------------|
|-------------------------------|-------------------------------|
|-------------------------------|-------------------------------|
|--10(x32)----6(x16)----3(x16)--|--10(x32)----6(x16)----3(x16)--|


|---------------------------------|
|---------------------------------|
|---------------------------------|
|--13-13-0--13-13-xx-0--13-13-xx--|


|-------------------------------------------------------------------|
|-------------------------------------------------------------------|
|-------------------------------------------------------------------|
|--00000000000-12-12-0000000000-12-12-12-12-00000000-12-12-12-12-12-|


|------------------------------------------------------------|
|------------------------------------------------------------|
|------------------------------------------------------------|
|--3-0-0-3-0-0-3-0-0--1-1-1-1-1-4-4-4-4-4--3-0-0-3-0-0-3-00--|


|-------------------------------------------------|
|-------------------------------------------------|
|-------------------------------------------------|
|--3-0-0-3-0-0-3-0-0-6-6-6-6-6-6-6-1-1-1-1-1-1-1--|


|------------------------------------------------------|
|-------------15151515-141414141-101011010-------------|
|-------------------------------------------1212121212-|
|--1313131313------------------------------------------|


|------------------------------|
|--------15----14----10--------|
|--------------------------12--|
|--13--------------------------|


|----------------------------------------------------|
|-------------15151515-14141414-10101010-------------|
|-------------------------------------------12121212-|
|--13131313------------------------------------------|

            
            
Suggest correction
Creating personal tab
Creating personal tab
You can edit any tab online and save it as your Personal.

You can edit, replace or remove any tab part or add personal notes – all changes will be seen only by you.

Personal tabs can be accessed anytime from any device, even offline.
Learn more »
comments
print report bad tab
1 comment total.
0 reply
horizonaflame 430 Jan 30, 2011 12:19 PM

should be played in drop C, like the guitar, & this works okay, but it definitely sounds better in drop C, so check out my tab for it Version 2.

guest
Wanna post a correction for this tab? Suggest correction