Oops, an error
Loading. Please wait.

The Sadness Will Never End tab

version 5
version 5
2,900 views 3 this week
1 commentread comment
1 2 3 4 5
2 more votes to show rating
add to favorites
×
Save as Personal and add changes to this tab that will be seen only by you. Learn more ›
×
You can save this tab as Personal to edit and correct it or add notes. All changes will be seen only by you. Learn more »
launch autoscroll
font size
0
reset
how to read this tab
guitar tuner
edit
Autoscroll
slow
fast
+/-
esc
set tempo
stop
Intro
D|--------------------------------------------------------------------------|
A|--------------------------------------------------------------------------|
F|--------------------------------------------------------------------------|
C|-00000000--00000000-------------------------------------------------------|
G|-00000000--00000000-------------------------------------------------------|
C|-00000000--00000000--3-3-3-3-3-3/8-8-8-5-5-5-5-5-5-7-7-7-3-3-3-3-3-3-7-7-7|

D|------------------------------------------------------------------|
A|------------------------------------------------------------------|
F|------------------------------------------------------------------|
C|-00000000---------------------------------------------------------|
G|-00000000-------------------------------------------------000000--|
C|-00000000-3-3-3-3-3-3/8-8-8-5-5-5-5-5-5-7-7-7-3-3-3-3-3-3-000000--|

D|-----------------------------------------------------------------------|
A|-----------------------------------------------------------------------|
F|-----------------------------------14-14-14-14-12-12-12-12-10-10-10----| x2
C|-0-0---0-0-----------------8-8-8----x--x--x--x--x--x--x--x--x--x--x----|
G|-0-0---0-0-----------------8-8-8---12-12-12-12-10-10-10-10--8--8--8----|
C|-0-0---0-0-3-3-3-3-3/7-7-7-8-8-8---------------------------------------|

D|-------------17-------------------------------------------------------|
A|---------------18-----------------------------------------------------|
F|-----------------141514---------------------7~-5~----------------5~---|
C|-0-0---0-0-------------15----7~-------------7~-5~-7~-8~-5~-8~-5~-5~---|
G|-0-0---0-0-----------------8---------7~-----5~-3~-7~-8~-5~-8~-5~-3~---|
C|-0-0---0-0---------------8-------7-10-------------7~-8~-5~-8~-5~------|

Verse
D|---------------------------------------------------------------------|
A|---------------------------------------------------------------------|
F|-77777777-55555555---------------------------------------------------|
C|-77777777-55555555-77777777-88888888---------------------------------|
G|-55555555-33333333-77777777-88888888---------------------------------|
C|-------------------77777777-88888888-5-5-5-5-5-5-5-5-5/8-8-8-8-8-8-8-|

D|-------------------------------------------------------------------------|
A|-------------------------------------------------------------------------|
F|------------------------------------77777777-55555555--------------------|
C|------------------------------------77777777-55555555-77777777-88888888--|
G|------------------------------------55555555-33333333-77777777-88888888--|
C|-5-5-5-5-5-5-5-5-5/1010101010101010-------------------77777777-88888888--|

D|---------------------------------------------------------------|
A|---------------------------------------------------------------|
F|-----------------------------------------10-10-10-10-9-9-9-----|
C|-0-0---0-0-----------------0-0---0-0------x--x--x--x-x-x-x-----|
G|-0-0---0-0-----------------0-0---0-0------8--8--8--8-7-7-7-----|
C|-0-0---0-0-0/8-8-8-8-8-8-8-0-0---0-0---------------------------|

Chorus 1
D|-----------------------------------------------------------|
A|-----------------------------------------------------------|
F|-----------------------------------------------------------| x2
C|-00000000--------------------------------------------------|
G|-00000000--------------------------------------------------|
C|-00000000-3-3-3-3-3-3/8-8-8-5-5-5-5-5-5-7-7-7-3-3-3-3-3-3--|

D|--------------------------------------------------|
A|--------------------------------------------------|
F|-------------10~--------------10~-----------------|
C|-0-0---0-0----x~-0-0---0-0-----x~-0-0---0-0-------|
G|-0-0---0-0-0--8~-0-0---0-0-0---8~-0-0---0-0-------|
C|-0-0---0-0-0-----0-0---0-0-0------0-0---0-0-------|

D|-17(x16)-15(x8)-20(x8)--------------15(x8)-17(x16)-15(x8)-20(x4)~-|
A|----------------------18(x16)-17(x8)------------------------------|
F|------------------------------------------------------------------|
C|----------------------(tremolo picking)---------------------------|
G|------------------------------------------------------------------|
C|------------------------------------------------------------------|

D|---------------------------------------------------------------|
A|---------------------------------------------------------------|
F|-----------------------------------------10-10-10-10-9-9-9-----|
C|-0-0---0-0-----------------0-0---0-0------x--x--x--x-x-x-x-----|
G|-0-0---0-0-----------------0-0---0-0------8--8--8--8-7-7-7-----|
C|-0-0---0-0-0/8-8-8-8-8-8-8-0-0---0-0---------------------------|


Chorus 2
D|--------------------------------------------------------|
A|--------------------------------------------------------|
F|-7777-777--7777777-5555-555-5555555---------------------| x2
C|-7777-777--7777777-5555-555-5555555------7~--------7~---|
G|-5555-555--5555555-3333-333-3333333----7---------8------|
C|-------------------------------------7-------7-8--------|

D|-17(x28)-20(x16)-17(x28)-15-13-15-13~-|
A|-(very fast tremolo picking)----------|
F|--------------------------------------| x2
C|--------------------------------------|
G|--------------------------------------|
C|--------------------------------------|

Bridge
D|---------------------------------------------------------------------------|
A|---------------------------------------------------------------------------|
F|-------------------------------------------------------151515151515--------| x4
C|-1515151515151515151515151515151515151515-141414141414---------------------|
G|---------------------------------------------------------------------------|
C|---------------------------------------------------------------------------|

Chorus 3
D|----------------------------------------------------------|
A|----------------------------------------------------------|
F|----------------------------------------------------------| x3
C|-00000000-------------------------------------------------|
G|-00000000-------------------------------------------------|
C|-00000000-3-3-3-3-3-3/8-8-8-5-5-5-5-5-5-7-7-7-3-3-3-3-3-3-|

D|-----------------------------------------------------------------------|
A|-----------------------------------------------------------------------|
F|-------------------------------------14-14-14-14-12-12-12-12-10-10-10--| x2
C|-0-0---0-0-------------------8-8-8----x--x--x--x--x--x--x--x--x--x--x--|
G|-0-0---0-0-------------------8-8-8---12-12-12-12-10-10-10-10--8--8--8--|
C|-0-0---0-0-3-3-3-3-3-3/7-7-7-8-8-8-------------------------------------|

Break
D|------------------------|  |-------------------------|
A|------------------------|  |-------------------------|
F|-----------(x2)---------|  |-------------------------|
C|--0~----0~----0~-----0~-|  |--------(x2)-------------|
G|--x-----x-----x------x--|  |-5(x32)------------4(x8)-|
C|-12~----8~----5~----11~-|  |-------8(x16)-5(x8)------|


D|-----------------------------------------------------------------------||
A|-----------------------------------------------------------------------||
F|-------10-10-10-----------10-10-10--------10-10-10------------10-10-10-||
C|-------14-14-14-----------14-14-14--------14-14-14------------14-14-14-||
G|-----------------00000000-----------------------------000-000----------||
C|-12-12-----------00000000-----------12-12-------------000-000----------||
PM                 ........                             ... ...           |
                                                                          |x3
D|-----------------------------------------------------------------|      |
A|-----------------------------------------------------------------|      |
F|-----6--6--6--------7--7--7--------------------------------------|      |
C|-----9--9--9--------9--9--9--------------------------------------|      |
G|----------------000----------------------------------------------|      |
C|-8-8------------000----------8-8-8-8-8-8-8-8-5-5-5-5-11-11-11-11-|      |
                  ...
 SOLO
D|---------------17----20----22----20----18-20-18----|
A|---18----20------------------------------------14~-|
F|-19--1919--1919--1919--1919--1919--1919------------|
C|---------------------------------------------------|
G|---------------------------------------------------|
C|---------------------------------------------------|

D|-22-20-22-18-22-17-22--22--22--22--22------181715------------------------|
A|---------------------20--18--17--15--14~---------181715-14---------------|
F|----------------------------------------------------------15-14----------|
C|---------------------------------------------------------------181715----|
G|---------------------------------------------------------------------17~-|
C|-------------------------------------------------------------------------|




Outro

D|-----------------------------------------------------------------------|
A|-----------------------------------------------------------------------|
F|-------10-10-10-----------10-10-10--------10-10-10------------10-10-10-|
C|-------14-14-14-----------14-14-14--------14-14-14------------14-14-14-|
G|-----------------00000000-----------------------------000-000----------|
C|-12-12-----------00000000-----------12-12-------------000-000----------|
PM                 ........                             ... ...           
                                                                          
D|-----------------------------------------------------------------|      
A|-----------------------------------------------------------------|      
F|-----6--6--6--------6--6--6--------------------------------------|      
C|-----9--9--9--------9--9--9--------------------------------------|      
G|----------------000----------------------------------------------|      
C|-8-8------------000----------8-8-8-8-8-8-8-8-5-5-5-5-11-11-11-11-|   

D|--------------------------|
A|--------------------------|
F|-------10-10-10-----------|
C|-------14-14-14-----------|
G|-----------------00000000-|
C|-12-12-----------00000000-|
PM                 ........                                     

            
            
Suggest correction
Creating personal tab
Creating personal tab
You can edit any tab online and save it as your Personal.

You can edit, replace or remove any tab part or add personal notes – all changes will be seen only by you.

Personal tabs can be accessed anytime from any device, even offline.
Learn more »
Give kudos to tab author, rate the tab!
1 2 3 4 5
comments
print report bad tab
1 comment total.
0 reply
bye7976 52 Aug 17, 2013 08:49 AM

lol sorry, right after chorus 1, it should say

D|---------------------------------------------------------------|
A|---------------------------------------------------------------|
F|-----------------------------------------10-10-10-10-9-9-9-----|
C|-0-0---0-0-----------------0-0---0-0------x--x--x--x-x-x-x-----|
G|-0-0---0-0-----------------0-0---0-0------8--8--8--8-7-7-7-----|
C|-0-0---0-0-0/8-8-8-8-8-8-8-0-0---0-0---------------------------|

i guess if forgot to put that part in. post on my wall if you have anymore corrections and i will try and update. :)

guest
You may want to rate the tab now too:
select rating
Wanna post a correction for this tab? Suggest correction