Oops, an error
Loading. Please wait.

Hit Me Baby One More Time chords

version 2
version 2

Whole song

Interactive

50,605 views 21 this week
no commentswrite comment
1 2 3 4 5
x 3
add to favorites
×
Save as Personal and add changes to this tab that will be seen only by you. Learn more ›
×
You can save this tab as Personal to edit and correct it or add notes. All changes will be seen only by you. Learn more »
launch autoscroll
font size
0
reset
transpose
0
reset
simplify chords
display chords
guitar tuner
edit
Autoscroll
slow
fast
+/-
esc
set tempo
stop
Author
Difficulty
intermediate
Strumming
There is no strumming pattern for this song yet. and get +5 IQ
This just adds the descending bass notes on the chords to add a little harmony for accompanying.


     G5  A5    Am7  E/G#  C/G  Dm/F  Em or  
e|--------------x----x-----x----1----x----x--0-----------|
B|--------------x----5-----5----3----5---5---0-----------|
G|--------------5----4-----5----2----4---4---0-----------|
D|---x---x------5----2-----5----x----5---5---2-----------|
A|---5---7------x----x-----3----x----x---x---2-----------|
E|---3---5------5----4-----3----1----0---3---0-----------|

You can also move the voicings around to change it up a little. I've included a few alternatives for ideas...

     G5  A5    Am7  E/G#  C/G  Dm/F  Em or  
e|--------------8----x-----x----x----x------x----------|
B|-------------10----9-----8----6----5------12---------|
G|--------------9----9-----9----7----7------12---------|
D|---x---x------x----9-----10---7----5------12---------|
A|---5---7------0----11----10---8----7------x----------|
E|---3---5------x----x-----x----x----x------0----------|
 
The alternate chords can be used over the B section too.
 

[Intro]
G5  A5  G5 A5

[Verse]
Am7
Oh baby, baby
     E/G#              C/G
How was I supposed to know
      Dm/F              Em    
That something wasn't right here
Am
Oh baby baby
     E                   C
I shouldn't have let you go
     Dm                Em
And now you're out of sight, yeah
Am7               E/G#       
Show me, how you want it to be
         C/G
Tell me baby
                  Dm/F               Em
'Cause I need to know now what we've got
 
[Chorus]
Am                E
My loneliness is killing me
C                   Dm/F            Em
I must confess, I still believe, still believe.
Am7                      E/G#
When I'm not with you I lose my mind
C/G
Give me a sign
Dm/F         Em             Am7  
Hit me baby one more time

            
            
Suggest correction
Creating personal tab
Creating personal tab
You can edit any tab online and save it as your Personal.

You can edit, replace or remove any tab part or add personal notes – all changes will be seen only by you.

Personal tabs can be accessed anytime from any device, even offline.
Learn more »
Give kudos to tab author, rate the tab!
1 2 3 4 5
comments
print report bad tab
guest
You may want to rate the tab now too:
select rating
Wanna post a correction for this tab? Suggest correction