Oops, an error
Loading. Please wait.

Cruel Town chords

version 2
version 2

Whole song

268 views 6 this week
no commentswrite comment
1 2 3 4 5
3 more votes to show rating
add to favorites
×
Save as Personal and add changes to this tab that will be seen only by you. Learn more ›
×
You can save this tab as Personal to edit and correct it or add notes. All changes will be seen only by you. Learn more »
launch autoscroll
font size
0
reset
transpose
0
reset
display chords
guitar tuner
edit
Autoscroll
slow
fast
+/-
esc
set tempo
stop
Strumming
There is no strumming pattern for this song yet. and get +5 IQ
(Låten spelas med capo på 3:e bandet)

Plock i intro och mellanspel

[Interlude]

   Am                             Dm
e-----------------------------------------------------------------|
B----------0-----1-----3---1---0----------5-----6-----8---6---5---|
G------2-----2-----2----------------7-------7-----7-----7---7---7-|
D----2---2-----2-----2---2---2---/7---7-7-----7-----7-------------|
A--0--------------------------------------------------------------|
E-----------------------------------------------------------------|

   G               E    
e----------------------------------|
B----------0-----------------------|
G----0-------0---0-----1-----------|
D------0-------0-------------------|
A--------2-----------2---2-3-2-0-2-|
E--3---------------0---------------|


[Solo] innan sista refrängen

   Am   G      F     G    Am             G           F           G               Am  E               
e----------------------------------------------------------------------------------|
B----------------------------------------------------------------------------------|
G----------------------------------------------------------------------------------|
D--------------------------2-2-2-5-5-5-2-2-2-9-9-9-9-2-2-2-5-5-5-2-0-------0-------|
A--0---0-2-0-2-3-2-3-5-3-5-------------------------------------------3-2-3---3-2-0-|
E----3-----------------------------------------------------------------------------|


[Intro]

Am Dm G E
Am Dm G E


[Verse]

Am                   Dm
Runaways and rapists
Dm                   G
Fill the streets att night
       E               Am
Broken Bottles glimmer in the city lights
       Dm               G     E
In the alleys cold wind blows


[Interlude]

Am Dm G E

Am                     Dm
In the crowd of people
Dm            G
On the subway trains
       E               Am    
No one looks into your eyes
       Dm            G    E
In the park a junkie dies

E    E
Ahhhhhhhhhh


[Chorus]

Am                 G
Cruel town, it´s a cruel town
Dm          F     G
Cold people cruel town
Am                 G
Cruel town, it´s a cruel town
Dm              F    G
If you fall you stay down

Am Am

Dm       C
Cold city, cruel system
Dm            C         G
Nothing´s made for people


[Interlude]

G G
Am Dm G E


[Verse]

Am                      Dm
See the run down alcoes
Dm           G
Drift in the mall
G    E              Am
Laws change and the goverments fall
        Dm           G     E
But the beggars all remain

E    E
Ahhhhhhhhhh


[Chorus]

Am                 G
Cruel town, it´s a cruel town
Dm          F     G
Cold people cruel town
Am                 G
Cruel town, it´s a cruel town
Dm              F    G
If you fall you stay down

Am Am

Dm       C 
Cold city, cruel system
Dm             C          G
Nothing´s made for people


[Solo]

Am G F G
Am G F G E E


[Outro]

Am                 G
Cruel town, it´s a cruel town
Dm          F     G
Cold people cruel town
Am                 G
Cruel town, it´s a cruel town
Dm              F    G
If you fall you stay down
Am    G          F      G                Am
        You stay down      You never get up
G                 F     G     Am    
    You never get up

            
            
Suggest correction
Creating personal tab
Creating personal tab
You can edit any tab online and save it as your Personal.

You can edit, replace or remove any tab part or add personal notes – all changes will be seen only by you.

Personal tabs can be accessed anytime from any device, even offline.
Learn more »
Give kudos to tab author, rate the tab!
1 2 3 4 5
comments
print report bad tab
guest
Wanna post a correction for this tab? Suggest correction