Oops, an error
Loading. Please wait.

No Time For Us tab

version 1
version 1

Whole song

Interactive

10,004 views 60 this week
1 commentread comment
1 2 3 4 5
x 4
add to favorites
×
Save as Personal and add changes to this tab that will be seen only by you. Learn more ›
×
You can save this tab as Personal to edit and correct it or add notes. All changes will be seen only by you. Learn more »
launch autoscroll
font size
0
reset
how to read this tab
guitar tuner
edit
Autoscroll
slow
fast
+/-
esc
set tempo
stop
------------------------------------------------------------------
                         No Time For Us - Broder Daniel
------------------------------------------------------------------
Tabbed by: Mangoinmydreams

Standard tuning. Capo 3rd fret.


  C                 G           Am                F
e[-------3---------------6-6--------------3-------------4---------]
B[---------4------------------3h4---------- 4---------4--4--------]
G[-----3-----3--------------------------5-----5-----5------5------]
D[---5---------5----------------------5---------5-6----------6----]
A[-6-----------------5--------------3-----------------------------]
E[------------------6---------------------------------------------]

Played again and again throughout the whole song.


C                G
There is no time for us
Am               F
There is no time for us
C                  G
Oh the world won't understand
Am                F
It's left no time for us

C G Am F x2

C                  G
I love a girl I'll never see her again
Am               F
She was so young I'll never see her again
C            G
She was so young
Am                 F
I'll never see her again

C G Am F x2

C            G
What is worthwhile in the world
Am                       F
If you can't be with the one you love
C            G
What is worthwhile
Am                 F
We'll be forgotten when we're gone

C G Am F x1

Am G C F x2 <--These 8 chords are not fingerpicked

C G Am F x1

C          G
If I could change one thing in life
Am            F
I'd make time for us
C                 G
If I could change one thing
Am            F
I'd make time for us

            
            
Suggest correction
Creating personal tab
Creating personal tab
You can edit any tab online and save it as your Personal.

You can edit, replace or remove any tab part or add personal notes – all changes will be seen only by you.

Personal tabs can be accessed anytime from any device, even offline.
Learn more »
comments
print report bad tab
1 comment total.
+2 reply
Lowan 20 Jun 01, 2010 12:07 PM

The capo should be on 6th fret.
And the second G in the intro should be like this:


e:------------]
B:----0-0---0-]
G:--------0---]
D:------------]
A:---2--------]
E:-3----------]



The rest is great :) Thanks for the tab!

guest
You may want to rate the tab now too:
select rating
Wanna post a correction for this tab? Suggest correction