Oops, an error
Loading. Please wait.

Bruised Ghosts tab

1,185 views 1 this week
1 commentread comment
1 2 3 4 5
3 more votes to show rating
add to favorites
×
Save as Personal and add changes to this tab that will be seen only by you. Learn more ›
×
You can save this tab as Personal to edit and correct it or add notes. All changes will be seen only by you. Learn more »
launch autoscroll
font size
0
reset
how to read this tab
guitar tuner
edit
Autoscroll
slow
fast
+/-
esc
set tempo
stop
Author
Bruised Ghosts
by Broken Social Scene

From the album:
Live at the Radio Aligre in Paris

tabbed by:
Melanie Higgins
micmac32@gmail.com


BY THE WAY::: I'm kind of an amateur tabber but I was dying to play this song,
so if you have any corrections please don't hesitate to say them, I did my best.

And I'm actually really pissed that nobody has done any of the other songs on the album,
because they're amazing. If you get the chance, tab them.


	Chorus + Verse

	e-----5--------4---------2---------0-------|
	B-----5--------5---------3---------0-------|
	G-----6--------6---------4---------1-------|
	D-----7--------6---------4---------2-------|
	A-----7--------4---------2---------2-------|
	E-----5--------4---------2---------0-------|

		    (A)        (?)	      (Bm)       (E)

	Trumpet Solo

e----------------------------------------------------------------------|
B----------------------------------------------------------------------|
G-------b9~b9~b9-p9~7--------------------------------------------------|
D-----------------------/11--11p9h11-----9~p11-9h11--------------------|
A----------------------------------------------------------------------|
E----------------------------------------------------------------------|


e---------------------------------------------------------------------|
B---------------------------------------------------------------------|
G-------b9p7----------------------------------------------------------|
D---------------/11--11p9h11-----7----9----9--------------------------|
A----------------------------------------------11--11---12------------|
E---------------------------------------------------------------------|


e---------------------------------------------------------------------|
B----------------------9~~~10~~---------------------------------------|
G-----9--9--9--9------------------9p7---------------------------------|
D---------------------------------------/11----9---11~~---------------|
A---------------------------------------------------------------------|
E---------------------------------------------------------------------|


e---------------------------------------------------------------------|
B---------9h10p9~~---10p9---------------------------------------------|
G------9--------------------11~----9p7--------------------------------|
D-----------------------------------------/11--9---11---7-------------|
A---------------------------------------------------------------------|
E---------------------------------------------------------------------|

	(softer end)

e---------------------------------------------------------------------|
B---------------------------------------------------------------------|
G-----b9-b9-b9p7------------------------------------------------------|
D---------------------------------------------------------------------|
A---------------------------------------------------------------------|
E---------------------------------------------------------------------|

            
            
Suggest correction
Creating personal tab
Creating personal tab
You can edit any tab online and save it as your Personal.

You can edit, replace or remove any tab part or add personal notes – all changes will be seen only by you.

Personal tabs can be accessed anytime from any device, even offline.
Learn more »
Give kudos to tab author, rate the tab!
1 2 3 4 5
comments
print report bad tab
1 comment total.
0 reply
lil-dice 157 Jan 08, 2017 07:12 PM

The correct progression is G/Em/D/C

The solo is built around G A F# E F# notes, so on the G string, 12-14-11-9-11, try that on for size.

guest
You may want to rate the tab now too:
select rating
Wanna post a correction for this tab? Suggest correction