Oops, an error
Loading. Please wait.

Neon Moon solo tab

version 1
version 1

Solo

Whole song

Interactive

1,705 views 33 this week
3 commentsread comments
1 2 3 4 5
1 last vote to show rating
add to favorites
×
Save as Personal and add changes to this tab that will be seen only by you. Learn more ›
×
You can save this tab as Personal to edit and correct it or add notes. All changes will be seen only by you. Learn more »
launch autoscroll
font size
0
reset
how to read this tab
guitar tuner
edit
Autoscroll
slow
fast
+/-
esc
set tempo
stop
Author
Difficulty
-----------------------------------------------------------------------------
                             Neon Moon By Brooks and Dunn
-----------------------------------------------------------------------------
Tabbed by:"Tiny" Tim Smith
E-mail:tiny@catfishin.net

Tuning:440 standard Sing in G

e|-----------------------------------------------5p3h5-3-0-0-0--0-0----------|
B|------0-0-0-0----------------0-0-0-0-------3-5--------------------3-0-3----|
G|----0--------2-0-2-0-0-----0---------2-0-2---------------------------------|
D|0-2--------------------0-2-------------------------------------------------|
A|---------------------------------------------------------------------------|
E|---------------------------------------------------------------------------|

e|--------------------------------------------------------5p3h5-3-0-0-0--0-0-|
B|0-------------0-0-0-0----------------0-0-0-0-------0-3-5-------------------|
G|--2-0-2-0-------------2-0-2-0-0-----0--------2-0-2-------------------------|
D|----------2-0-------------------0-2----------------------------------------|
A|---------------------------------------------------------------------------|
E|---------------------------------------------------------------------------|

e|---------------------------------------------------------------------------|
B|3-0-3--continued rinse and repeat... throw in a few hammeron on the G2 fret|
G|licks----------------------------------------------------------------------|
D|and I hit a few double open string licks once in a while to change it up---|
A|and have fun with it that way ---------------------------------------------|
E|---------------------------------------------------------------------------|



************************************

| /   slide up
| \   slide down
| h   hammer-on
| p   pull-off
| ~   vibrato
| +   harmonic
| x   Mute note
| b   Bend
| pb  Pre-bend
| br  Bend release
| pbr Pre-bend release
| brb Bend release bend

************************************

            
            
Suggest correction
Creating personal tab
Creating personal tab
You can edit any tab online and save it as your Personal.

You can edit, replace or remove any tab part or add personal notes – all changes will be seen only by you.

Personal tabs can be accessed anytime from any device, even offline.
Learn more »
Give kudos to tab author, rate the tab!
1 2 3 4 5
comments
print report bad tab
3 comments total.
0 reply
tsmith03 21 Jun 26, 2015 08:22 AM, edited at 12:35 pm

There's a youtube video of brooks and dunn playing Neon Moon on Paladia and if you put your capo on the second fret with standard tuning you can play along with the video using G and also use these notes on this tab to play along like you would improvise with a song using a pentatonic scale with those notes tabbed above... sounds great. I like playing using G with capo on second fret .. that means they're actually playing in the key of A on the Live Video. So, If you don;t have a capo just use A to play along but the notes above will be two frets higher to match the song on the video. Like instead of 2nd you'd use the 4th fret

0 reply
spirobudman1 10 May 01, 2017 02:08 AM

add guitar2 tabs the cool background tabs

0 reply
spirobudman1 10 May 01, 2017 02:14 AM

add guitar2 tabs the cool background tabs

guest
You may want to rate the tab now too:
select rating
Wanna post a correction for this tab? Suggest correction