Oops, an error
Loading. Please wait.

Tyranny Of Souls bass

version 1
version 1

Whole song

Interactive

363 views 3 this week
1 commentread comment
1 2 3 4 5
3 more votes to show rating
add to favorites
×
Save as Personal and add changes to this tab that will be seen only by you. Learn more ›
×
You can save this tab as Personal to edit and correct it or add notes. All changes will be seen only by you. Learn more »
launch autoscroll
font size
0
reset
guitar tuner
edit
Autoscroll
slow
fast
+/-
esc
set tempo
stop
A Tyranny Of Souls


                                                                 Bruce Dickinson
Bass

     W                   W                   W
G|-------------------|-------------------|-------------------|
D|-------------------|-------------------|-------------------|
A|-------------------|-------------------|-------------------|
D|-------------------|-------------------|-------------------|


    W                   W                   W                   W
G|-------------------|-------------------|-------------------|-------------------|
D|-------------------|-------------------|-------------------|-------------------|
A|-------------------|-------------------|-------------------|-------------------|
D|-------------------|-------------------|-------------------|-------------------|


    W                   W                   W                   W
G|-------------------|-------------------|-------------------|-------------------|
D|-------------------|-------------------|-------------------|-------------------|
A|-------------------|-------------------|-------------------|-------------------|
D|-------------------|--0----------------|--L----------------|--L----------------|


    W                   W                   W                   W
G|-------------------|-------------------|-------------------|-------------------|
D|-------------------|-------------------|-------------------|-------------------|
A|-------------------|-------------------|-------------------|-------------------|
D|--L----------------|--L----------------|--L----------------|--L----------------|


    W                   W                   W                   W
G|-------------------|-------------------|-------------------|-------------------|
D|-------------------|-------------------|-------------------|-------------------|
A|-------------------|-------------------|-------------------|-------------------|
D|--L----------------|--0----------------|--L----------------|--L----------------|


    W                   W                   W                   W
G|-------------------|-------------------|-------------------|-------------------|
D|-------------------|-------------------|-------------------|-------------------|
A|-------------------|-------------------|-------------------|-------------------|
D|--L----------------|--L----------------|--L----------------|--L----------------|


    W                   W                   W                   W
G|-------------------|-------------------|-------------------|-------------------|
D|-------------------|-------------------|-------------------|-------------------|
A|-------------------|-------------------|-------------------|-------------------|
D|--L----------------|--0----------------|--L----------------|--L----------------|


    W                   W                   W                   W
G|-------------------|-------------------|-------------------|-------------------|
D|-------------------|-------------------|-------------------|-------------------|
A|-------------------|-------------------|-------------------|-------------------|
D|--L----------------|--L----------------|--L----------------|--L----------------|


    W                   W                   W                   W
G|-------------------|-------------------|-------------------|-------------------|
D|-------------------|-------------------|-------------------|-------------------|
A|-------------------|--3----------------|--L----------------|--L----------------|
D|--L----------------|-------------------|-------------------|-------------------|


    W                   W                   W                   W
G|-------------------|-------------------|-------------------|-------------------|
D|-------------------|-------------------|-------------------|-------------------|
A|--L----------------|--3----------------|--L----------------|--L----------------|
D|-------------------|-------------------|-------------------|-------------------|


    W                   W                   W                   W
G|-------------------|-------------------|-------------------|-------------------|
D|-------------------|-------------------|-------------------|-------------------|
A|--L----------------|-------------------|-------------------|-------------------|
D|-------------------|--0----------------|--L----------------|--L----------------|


    W                   W                   W
G|-------------------|-------------------|-------------------|
D|-------------------|-------------------|-------------------|
A|-------------------|-------------------|-------------------|
D|--L----------------|--L----------------|--L----------------|


    E  E  E  E  E  E  E  E     E  E  E  E  E  E  E  E      H         H
G|--------------------------|--------------------------|----------------------|
D|--------------------------|--------------------------|----------------------|
A|--------------------------|--------------------------|----------------------|
D|--0--0--0--0--0--0--0--0--|--0--0--0--0--0--0--0--0--|--12\-----------------|


    W                   Q.     E  E  E  Q       E  E  Q    E  E  E  E
G|-------------------|-----------------------|-------------------------|
D|-------------------|-----------------------|--------3----3--3--3--3--|
A|-------------------|--5------5--5--3--5----|--L--5-------------------|
D|-------------------|-----------------------|-------------------------|


    Q.     E  E  E  Q       E  E  Q    E  E  E  E     Q.     E  E  E  Q
G|-----------------------|-------------------------|-----------------------|
D|-----------------------|-------------------------|-----------------------|
A|--1------1--1--0--1----|--L--1--3----3--3--3--3--|--5------5--5--3--5----|
D|-----------------------|-------------------------|-----------------------|


    E  E  Q    E  E  E  E     Q.     E  E  E  Q       E  E  Q    E  E  E  E
G|-------------------------|-----------------------|-------------------------|
D|--------3----3--3--3--3--|-----------------------|-------------------------|
A|--L--5-------------------|--1------1--1--0--1----|--L--1--0----0--0--0--0--|
D|-------------------------|-----------------------|-------------------------|


    Q.     E  E  E  Q       E  E  Q    E  E  E  E     Q.     E  E  E  Q
G|-----------------------|-------------------------|-----------------------|
D|-----------------------|--------3----3--3--3--3--|-----------------------|
A|--5------5--5--3--5----|--L--5-------------------|--1------1--1--0--1----|
D|-----------------------|-------------------------|-----------------------|


    E  E  Q    E  E  Q       W                   W
G|------------------------|-------------------|-------------------|
D|------------------------|-------------------|-------------------|
A|------------------------|-------------------|-------------------|
D|--0--0--1----0--0--1----|--0----------------|--L----------------|


    W                   Q    E  E  S  S  E  E  E     W
G|-------------------|----------------------------|-------------------|
D|-------------------|-------------2h-3p-2--------|-------------------|
A|-------------------|-------3--5-----------5--3--|-------------------|
D|--L----------------|--L-------------------------|--0----------------|


    W                   W                   W                   W
G|-------------------|-------------------|-------------------|-------------------|
D|-------------------|-------------------|-------------------|-------------------|
A|-------------------|-------------------|-------------------|-------------------|
D|--L----------------|--L----------------|--L----------------|--0----------------|


    W                   W                   W                   W
G|-------------------|-------------------|-------------------|-------------------|
D|-------------------|-------------------|-------------------|-------------------|
A|-------------------|-------------------|-------------------|-------------------|
D|--L----------------|--L----------------|--L----------------|--L----------------|


    W                   W                   W                   W
G|-------------------|-------------------|-------------------|-------------------|
D|-------------------|-------------------|-------------------|-------------------|
A|-------------------|-------------------|-------------------|-------------------|
D|--L----------------|--L----------------|--L----------------|--0----------------|


    W                   W                   W                   W
G|-------------------|-------------------|-------------------|-------------------|
D|-------------------|-------------------|-------------------|-------------------|
A|-------------------|-------------------|-------------------|-------------------|
D|--L----------------|--L----------------|--L----------------|--L----------------|


    W                   W                   W                   W
G|-------------------|-------------------|-------------------|-------------------|
D|-------------------|-------------------|-------------------|-------------------|
A|-------------------|-------------------|-------------------|--3----------------|
D|--L----------------|--L----------------|--L----------------|-------------------|


    W                   W                   W                   W
G|-------------------|-------------------|-------------------|-------------------|
D|-------------------|-------------------|-------------------|-------------------|
A|--L----------------|--L----------------|--L----------------|--3----------------|
D|-------------------|-------------------|-------------------|-------------------|


    W                   W                   W                   W
G|-------------------|-------------------|-------------------|-------------------|
D|-------------------|-------------------|-------------------|-------------------|
A|--L----------------|--L----------------|--L----------------|-------------------|
D|-------------------|-------------------|-------------------|--0----------------|


    W                   W                   W                   W
G|-------------------|-------------------|-------------------|-------------------|
D|-------------------|-------------------|-------------------|-------------------|
A|-------------------|-------------------|-------------------|-------------------|
D|--L----------------|--L----------------|--L----------------|--L----------------|


    W                   E  E  E  E  E  E  E  E     E  E  E  E  E  E  E  E
G|-------------------|--------------------------|--------------------------|
D|-------------------|--------------------------|--------------------------|
A|-------------------|--------------------------|--------------------------|
D|--L----------------|--0--0--0--0--0--0--0--0--|--0--0--0--0--0--0--0--0--|


     H         H           W                   Q.     E  E  E  Q
G|----------------------|-------------------|-----------------------|
D|----------------------|-------------------|-----------------------|
A|----------------------|-------------------|--5------5--5--3--5----|
D|--12\-----------------|-------------------|-----------------------|


    E  E  Q    E  E  E  E     Q.     E  E  E  Q       E  E  Q    E  E  E  E
G|-------------------------|-----------------------|-------------------------|
D|--------3----3--3--3--3--|-----------------------|-------------------------|
A|--L--5-------------------|--1------1--1--0--1----|--L--1--3----3--3--3--3--|
D|-------------------------|-----------------------|-------------------------|


    Q.     E  E  E  Q       E  E  Q    E  E  E  E     Q.     E  E  E  Q
G|-----------------------|-------------------------|-----------------------|
D|-----------------------|--------3----3--3--3--3--|-----------------------|
A|--5------5--5--3--5----|--L--5-------------------|--1------1--1--0--1----|
D|-----------------------|-------------------------|-----------------------|


    E  E  Q    E  E  E  E     Q.     E  E  E  Q       E  E  Q    E  E  E  E
G|-------------------------|-----------------------|-------------------------|
D|-------------------------|-----------------------|--------3----3--3--3--3--|
A|--L--1--0----0--0--0--0--|--5------5--5--3--5----|--L--5-------------------|
D|-------------------------|-----------------------|-------------------------|


    Q.     E  E  E  Q       E  E  Q    E  E  E  E     Q.     E  E  E  Q
G|-----------------------|-------------------------|-----------------------|
D|-----------------------|-------------------------|-----------------------|
A|--1------1--1--0--1----|--L--1--3----3--3--3--3--|--5------5--5--3--5----|
D|-----------------------|-------------------------|-----------------------|


    E  E  Q    E  E  E  E     Q.     E  E  E  Q       E  E  Q    E  E  Q
G|-------------------------|-----------------------|------------------------|
D|--------3----3--3--3--3--|-----------------------|------------------------|
A|--L--5-------------------|--1------1--1--0--1----|------------------------|
D|-------------------------|-----------------------|--0--0--1----0--0--1----|


    E  E  E  E  E  E     E  E  E  E  E  E     E  E  E  E  E  E
G|--------------------|--------------------|--------------------|
D|--------------------|--------------------|--------------------|
A|--------------------|--------------------|--------------------|
D|--0--0--0--1--0--0--|--0--0--1--0--4--0--|--0--0--0--1--0--0--|


    E  E  E  E  E  E     E  E  E  E  E  E     E  E  E  E  E  E
G|--------------------|--------------------|--------------------|
D|--------------------|--------------------|--------------------|
A|--------------------|--------------------|--------------------|
D|--0--0--4--0--3--0--|--0--0--0--1--0--0--|--0--0--1--0--4--0--|


    E  E  E  E  E  E     E  E  E  E  E  E     E  E  E  E  E  E
G|--------------------|--------------------|--------------------|
D|--------------------|--------------------|--------------------|
A|--------------------|--------------------|--------------------|
D|--0--0--0--1--0--0--|--0--0--0--1--0--0--|--0--0--0--1--0--0--|


    E  E  E  E  E  E     E  E  E  E  E  E     E  E  E  E  E  E
G|--------------------|--------------------|--------------------|
D|--------------------|--------------------|--------------------|
A|--------------------|--------------------|--------------------|
D|--0--0--1--0--4--0--|--0--0--0--1--0--0--|--0--0--4--0--3--0--|


    E  E  E  E  E  E     E  E  E  E  E  E     E  E  E  E  E  E
G|--------------------|--------------------|--------------------|
D|--------------------|--------------------|--------------------|
A|--------------------|--------------------|--------------------|
D|--0--0--0--1--0--0--|--0--0--1--0--4--0--|--0--0--0--1--0--0--|


    E  E  E  E  E  E     E  E  E  E  E  E     E  E  E  E  E  E
G|--------------------|--------------------|--------------------|
D|--------------------|--------------------|--------------------|
A|--------------------|--------------------|--------------------|
D|--0--0--0--1--0--0--|--0--0--0--1--0--0--|--0--0--1--0--4--0--|


    E  E  E  E  E  E     E  E  E  E  E  E     E  E  E  E  E  E
G|--------------------|--------------------|--------------------|
D|--------------------|--------------------|--------------------|
A|--------------------|--------------------|--------------------|
D|--0--0--0--1--0--0--|--0--0--4--0--3--0--|--0--0--0--1--0--0--|


    E  E  E  E  E  E     E  E  E  E  E  E     E  E  E  E  E  E
G|--------------------|--------------------|--------------------|
D|--------------------|--------------------|--------------------|
A|--------------------|--------------------|--------------------|
D|--0--0--1--0--4--0--|--0--0--0--1--0--0--|--0--0--4--0--3--0--|


    E  E  E  E  E  E     E  E  E  E  E  E     E  E  E  E  E  E
G|--------------------|--------------------|--------------------|
D|--------------------|--------------------|--------------------|
A|--------------------|--------------------|--------------------|
D|--0--0--0--1--0--0--|--0--0--1--0--4--0--|--0--0--0--1--0--0--|


    E  E  E  E  E  E     E  E  E  E  E  E     E  E  E  E  E  E
G|--------------------|--------------------|--------------------|
D|--------------------|--------------------|--------------------|
A|--------------------|--------------------|--------------------|
D|--0--0--4--0--3--0--|--0--0--0--1--0--0--|--0--0--1--0--4--0--|


    E  E  E  E  E  E     E  E  E  E  E  E       E  E  E  E  E  E
G|--------------------|--------------------||---------------------|
D|--------------------|--------------------||*--------------------|
A|--------------------|--------------------||*--------------------|
D|--0--0--0--1--0--0--|--0--0--0--0--0--0--||---2--2--2--3--2--2--|


    E  E  E  E  E  E     E  E  E  E  E  E     E  E  E  E  E  E
G|--------------------|--------------------|--------------------|
D|--------------------|--------------------|--------------------|
A|--------------------|--------------------|--------------------|
D|--2--2--3--2--6--2--|--2--2--2--3--2--2--|--2--2--6--2--5--2--|


    E  E  E  E  E  E     E  E  E  E  E  E     E  E  E  E  E  E
G|--------------------|--------------------|--------------------|
D|--------------------|--------------------|--------------------|
A|--------------------|--------------------|--------------------|
D|--2--2--2--3--2--2--|--2--2--2--3--2--2--|--2--2--2--3--2--2--|


    E  E  E  E  E  E     E  E  E  E  E  E     E  E  E  E  E  E
G|--------------------|--------------------|--------------------|
D|--------------------|--------------------|--------------------|
A|--------------------|--------------------|--------------------|
D|--2--2--6--2--5--2--|--0--0--0--1--0--0--|--0--0--1--0--4--0--|


    E  E  E  E  E  E     E  E  E  E  E  E     E  E  E  E  E  E
G|--------------------|--------------------|--------------------|
D|--------------------|--------------------|--------------------|
A|--------------------|--------------------|--------------------|
D|--0--0--0--1--0--0--|--0--0--4--0--3--0--|--0--0--0--1--0--0--|


    E  E  E  E  E  E     E  E  E  E  E  E     E  E  E  E  E  E
G|--------------------|--------------------|---------------------||
D|--------------------|--------------------|--------------------*||
A|--------------------|--------------------|--------------------*||
D|--0--0--0--1--0--0--|--0--0--0--1--0--0--|--0--0--4--0--3--0---||


    E  S S E  E  S S E     Q    H           H.              H.
G|----------------------|----------------|---------------|---------------|
D|----------------------|----------------|---------------|---------------|
A|----------------------|----------------|---------------|---------------|
D|--0--5-5-6--0--5-6-0--|--3-------------|---------------|---------------|


    E  S S E  E  S S E     Q    H           Q    E  E  Q       Q    E  E  Q
G|----------------------|----------------|------------------|------------------|
D|----------------------|----------------|------------------|------------------|
A|----------------------|----------------|------------------|------------------|
D|--0--5-5-6--0--5-6-0--|--3-------------|--0----6--0--6----|--0----6--0--6----|


    E  S S E  E  S S E     Q    H           H.              H.
G|----------------------|----------------|---------------|---------------|
D|----------------------|----------------|---------------|---------------|
A|----------------------|----------------|---------------|---------------|
D|--0--5-5-6--0--5-6-0--|--3-------------|---------------|---------------|


    E  S S E  E  S S E     Q    H           Q    E  E  Q       Q    E  E  Q
G|----------------------|----------------|------------------|------------------|
D|----------------------|----------------|------------------|------------------|
A|----------------------|----------------|------------------|------------------|
D|--0--5-5-6--0--5-6-0--|--3-------------|--0----6--0--6----|--0----6--0--6----|


    W                   W                   H.           Q
G|-------------------|-------------------|--------------------|
D|-------------------|-------------------|--------------------|
A|-------------------|-------------------|--------------------|
D|--0----------------|--L----------------|--L------------6----|


    H        E  Q.        W                   W
G|---------------------|-------------------|-------------------|
D|---------------------|-------------------|-------------------|
A|---------------------|-------------------|-------------------|
D|--L--------6--8------|--0----------------|--L----------------|


    H.           Q       H        E  Q.        W
G|--------------------|---------------------|-------------------|
D|--------------------|---------------------|-------------------|
A|--------------------|---------------------|-------------------|
D|--L------------6----|--L--------6--8------|--0----------------|


    W                   H.           Q       H        E  Q.
G|-------------------|--------------------|---------------------|
D|-------------------|--------------------|---------------------|
A|-------------------|--------------------|---------------------|
D|--L----------------|--L------------6----|--L--------6--8------|


    W                   W                   H.           Q
G|-------------------|-------------------|--------------------|
D|-------------------|-------------------|--------------------|
A|-------------------|-------------------|--------------------|
D|--0----------------|--L----------------|--L------------6----|


    H        E  Q.        W                   W
G|---------------------|-------------------|-------------------|
D|---------------------|-------------------|-------------------|
A|---------------------|-------------------|-------------------|
D|--L--------6--8------|--3----------------|--L----------------|


    W                   E  E  Q    E  E  Q       W
G|-------------------|------------------------|-------------------|
D|-------------------|------------------------|-------------------|
A|-------------------|------------------------|--0----------------|
D|--3----------------|--3--3--3----3--3--3----|-------------------|


    W                   Q    H.              W
G|-------------------|--------------------|-------------------|
D|-------------------|--------------------|-------------------|
A|--L----------------|--0-----------------|-------------------|
D|-------------------|--------------------|-------------------|


    Q.     E  E  E  Q       E  E  Q    E  E  E  E     Q.     E  E  E  Q
G|-----------------------|-------------------------|-----------------------|
D|-----------------------|--------3----3--3--3--3--|-----------------------|
A|--5------5--5--3--5----|--L--5-------------------|--1------1--1--0--1----|
D|-----------------------|-------------------------|-----------------------|


    E  E  Q    E  E  E  E     Q.     E  E  E  Q       E  E  Q    E  E  E  E
G|-------------------------|-----------------------|-------------------------|
D|-------------------------|-----------------------|--------3----3--3--3--3--|
A|--L--1--3----3--3--3--3--|--5------5--5--3--5----|--L--5-------------------|
D|-------------------------|-----------------------|-------------------------|


    Q.     E  E  E  Q       E  E  Q    E  E  E  E     Q.     E  E  E  Q
G|-----------------------|-------------------------|-----------------------|
D|-----------------------|-------------------------|-----------------------|
A|--1------1--1--0--1----|--L--1--0----0--0--0--0--|--5------5--5--3--5----|
D|-----------------------|-------------------------|-----------------------|


    E  E  Q    E  E  E  E     Q.     E  E  E  Q       E  E  Q    E  E  E  E
G|-------------------------|-----------------------|-------------------------|
D|--------3----3--3--3--3--|-----------------------|-------------------------|
A|--L--5-------------------|--1------1--1--0--1----|--L--1--3----3--3--3--3--|
D|-------------------------|-----------------------|-------------------------|


    Q.     E  E  E  Q       E  E  Q    E  E  E  E     Q.     E  E  E  Q
G|-----------------------|-------------------------|-----------------------|
D|-----------------------|--------3----3--3--3--3--|-----------------------|
A|--5------5--5--3--5----|--L--5-------------------|--1------1--1--0--1----|
D|-----------------------|-------------------------|-----------------------|


    E  E  Q    E  E  Q       Q.     E  E  E  Q       E  E  Q    E  E  E  E
G|------------------------|-----------------------|-------------------------|
D|------------------------|-----------------------|--------3----3--3--3--3--|
A|------------------------|--5------5--5--3--5----|--L--5-------------------|
D|--0--0--1----0--0--1----|-----------------------|-------------------------|


    Q.     E  E  E  Q       E  E  Q    E  E  E  E     Q.     E  E  E  Q
G|-----------------------|-------------------------|-----------------------|
D|-----------------------|-------------------------|-----------------------|
A|--1------1--1--0--1----|--L--1--3----3--3--3--3--|--5------5--5--3--5----|
D|-----------------------|-------------------------|-----------------------|


    E  E  Q    E  E  E  E     Q.     E  E  E  Q       E  E  Q    E  E  E  E
G|-------------------------|-----------------------|-------------------------|
D|--------3----3--3--3--3--|-----------------------|-------------------------|
A|--L--5-------------------|--1------1--1--0--1----|--L--1--0----0--0--0--0--|
D|-------------------------|-----------------------|-------------------------|


    Q.     E  E  E  Q       E  E  Q    E  E  E  E     Q.     E  Q    Q
G|-----------------------|-------------------------|----------------------|
D|-----------------------|--------3----3--3--3--3--|----------------------|
A|--5------5--5--3--5----|--L--5-------------------|--3------3--3----3----|
D|-----------------------|-------------------------|----------------------|


    E  E  Q    Q    E  E     Q.     E  Q    Q       E  E  Q    E  E  E  E
G|------------------------|----------------------|-------------------------|
D|------------------------|----------------------|-------------------------|
A|--L--3--3----3----3--3--|--1------1--1----1----|--L--1--1----1--1--1--1--|
D|------------------------|----------------------|-------------------------|


    Q.     E  Q    Q       E  E  Q    E  E  Q       W
G|----------------------|------------------------|-------------------|
D|----------------------|------------------------|-------------------|
A|--1------1--1----1----|------------------------|-------------------|
D|----------------------|--0--0--1----0--0--1----|--0----------------|


    W
G|-------------------||
D|-------------------||
A|-------------------||
D|--L----------------||


Duration Legend
---------------
W - whole
H - half
Q - quarter
E - 8th
S - 16th
T - 32nd
X - 64th
. - note dotted
|-n-|  - n-tuplets


Tablature Legend
----------------
L - tied note
x - dead note
g - grace note
(n) - ghost note
> - accentuded note
NH - natural harmonic
AH - artificial harmonic
TH - tapped harmonic
SH - semi harmonic
PH - pitch harmonic
h - hammer on
p - pull off
b - bend
br - bendRelease
pb - preBend
pbr - preBendRelease
brb - bendReleaseBend
\n/ - tremolo bar dip
\n - tremolo bar dive
-/n - tremolo bar Release up
/n\ - tremolo bar inverted dip
/n - tremolo bar return
-\n - tremolo bar Release down
S - shift slide
s - legato slide
/ -  slide into from below or out of upwards
\ -  slide into from above or out of downwards
~ - vibrato
W - wide vibrato
tr - trill
TP - tremolo picking
T - tapping
S - slap
P - pop
< - fade in
^ - brush up
v - brush down

            
            
Suggest correction
Creating personal tab
Creating personal tab
You can edit any tab online and save it as your Personal.

You can edit, replace or remove any tab part or add personal notes – all changes will be seen only by you.

Personal tabs can be accessed anytime from any device, even offline.
Learn more »
Give kudos to tab author, rate the tab!
1 2 3 4 5
comments
print report bad tab
1 comment total.
0 reply
Imperial Throg 845 Nov 01, 2008 12:13 PM

I like it how you copied it directly from my guitar pro tab! with the messed up solo rhythm and everything, but I suppose its good for people that dont have guitar pro.

guest
You may want to rate the tab now too:
select rating
Wanna post a correction for this tab? Suggest correction