Oops, an error
Loading. Please wait.

Glory Days tab

version 1
version 1

Whole song

Interactive

1,075 views 30 this week
no commentswrite comment
1 2 3 4 5
x 4
add to favorites
×
Save as Personal and add changes to this tab that will be seen only by you. Learn more ›
×
You can save this tab as Personal to edit and correct it or add notes. All changes will be seen only by you. Learn more »
launch autoscroll
font size
0
reset
how to read this tab
guitar tuner
backing track
0:00
0:00
edit
Autoscroll
slow
fast
+/-
esc
set tempo
stop

GLORY DAYS - Bruce Springsteen

A              D               A               D
-------------|---------------|---------------|-----------|
-------------|---------------|---------------|-----------|
-------------|-2-2-2-4-2-----|---------------|-2-2-2-4-2-|
-2-2-4-2-----|-0-0-0-0-0-----|-2-2-2-4-2-----|-0-0-0-0-0-|
-0-0-0-0-3>4-|-----------3<2-|-0-0-0-0-0-3>4-|-----------|
-------------|---------------|---------------|-----------|

A             D           A           D
-----------|-----------|-----------|-----------|
-----------|-----------|-----------|-----------|
-----------|-2-2-2-4-2-|-----------|-2-2-2-4-2-|
-2-2-2-4-2-|-0-0-0-0-0-|-2-2-2-4-2-|-0-0-0-0-0-|
-0-0-0-0-0-|-----------|-0-0-0-0-0-|-----------|
-----------|-----------|-----------|-----------|

A             D           A           D
-----------|-----------|-----------|-----------|
-----------|-----------|-----------|-----------|
-----------|-2-2-2-4-2-|-----------|-2-2-2-4-2-|
-2-2-2-4-2-|-0-0-0-0-0-|-2-2-2-4-2-|-0-0-0-0-0-|
-0-0-0-0-0-|-----------|-0-0-0-0-0-|-----------|
-----------|-----------|-----------|-----------|
I HAD A      BASEBALL    BACK IN
FRIEND WAS   PLAYER      HIGHSCHOOL
A BIG

A             D           A           D
-----------|-----------|-----------|-----------|
-----------|-----------|-----------|-----------|
-----------|-2-2-2-4-2-|-----------|-2-2-2-4-2-|
-2-2-2-4-2-|-0-0-0-0-0-|-2-2-2-4-2-|-0-0-0-0-0-|
-0-0-0-0-0-|-----------|-0-0-0-0-0-|-----------|
-----------|-----------|-----------|-----------|
HE COULD     SPEEDBALL   MAKE YOU    FOOL BOY
THROW THAT   BY YA       LOOK LIKE
                        
E                                                  D
SAW HIM THE OTHER NIGHT AT THIS ROADSIDE BAR I WAS WALKIN’ IN HE WAS

WALKIN OUT
E                                                   D   
WE WENT BACK INSIDE SAT DOWN HAD A FEW DRINKS BUT ALL HE KEPT TALKIN’ 

ABOUT WAS                              

A             D            A           D
-----------|------------|-----------|-----------|
-----------|------------|-----------|-----------|
-----------|-2-2-2-4-2--|-----------|-2-2-2-4-2-|
-2-2-2-4-2-|-0-0-0-0-0--|-2-2-2-4-2-|-0-0-0-0-0-|
-0-0-0-0-0-|------------|-0-0-0-0-0-|-----------|
-----------|------------|-----------|-----------|
GLORY DAYS  YEAH THEY’LL  GLORY DAYS  IN THE WINK OF
            PASS YOU BY               A YOUNG GIRL’S EYE   GLORY DAYS                                      

A              D              A           D
-----------|---------------|-----------|-----------|
-----------|---------------|-----------|-----------|
-----------|--2-2-2-4-2----|-----------|-2-2-2-4-2-|
-2-2-2-4-2-|--0-0-0-0-0----|-2-2-2-4-2-|-0-0-0-0-0-|
-0-0-0-0-0-|---------------|-0-0-0-0-0-|-----------|
-----------|---------------|-----------|-----------|
            GLORY D-A--A-YS

A              D             A           D
------------|-------------|-----------|-----------|
------------|-------------|-----------|-----------|
------------|-2-2-2-4-2---|-----------|-2-2-2-4-2-|
-2-2-2-4-2--|-0-0-0-0-0---|-2-2-2-4-2-|-0-0-0-0-0-|
-0-0-0-0-0--|-------------|-0-0-0-0-0-|-----------|
------------|-------------|-----------|-----------|
WELL THERE’S THAT LIVES UP BACK IN      HEADS
A GIRL       THE BLOCK     SCHOOL SHE
                           COULD TURN
                           ALL THE BOY

 A               D             A           D
------------|--------------|-----------|-----------|
------------|--------------|-----------|-----------|
------------|--2-2-2-4-2---|-----------|-2-2-2-4-2-|
-2-2-2-4-2--|--0-0-0-0-0---|-2-2-2-4-2-|-0-0-0-0-0-|
-0-0-0-0-0--|--------------|-0-0-0-0-0-|-----------|
------------|--------------|-----------|-----------|    
SOMETIMES ON I’LL STOP BY    AFTER SHE
A FRIDAY     AND HAVE A FEW  PUT HER 
             DRINKS          KIDS TO BED

        E                                      D
HER AND HER HUSBAND BOBBY WELL THEY SPLIT UP I GUESS IT’S 2 YEARS GONE BY NOW
        E
WE JUST SIT AROUND TALKIN ABOUT THE OLD TIMES SHE SAYS WHEN SHE
           D
FEELS LIKE CRYING
                    E
SHE STARTS LAUGHING THINKIN’ ABOUT

A             D            A           D
-----------|------------|-----------|-----------|
-----------|------------|-----------|-----------|
-----------|-2-2-2-4-2--|-----------|-2-2-2-4-2-|
-2-2-2-4-2-|-0-0-0-0-0--|-2-2-2-4-2-|-0-0-0-0-0-|
-0-0-0-0-0-|------------|-0-0-0-0-0-|-----------|
-----------|------------|-----------|-----------|
GLORY DAYS  YEAH THEY’LL  GLORY DAYS  IN THE WINK OF
            PASS YOU BY               A YOUNG GIRL’S EYE  GLORY DAYS

A             D               A           D
-----------|---------------|-----------|-----------|
-----------|---------------|-----------|-----------|
-----------|-2-2-2-4-2-----|-----------|-2-2-2-4-2-|
-2-2-2-4-2-|-0-0-0-0-0-----|-2-2-2-4-2-|-0-0-0-0-0-|
-0-0-0-0-0-|---------------|-0-0-0-0-0-|-----------|
-----------|---------------|-----------|-----------|
            GLORY DA-A-A-YS             ROCK IT NOW

  D                           A            D
|---------------|-----------|-----------|----------|
|---------------|-----------|-----------|----------|
|-2-2-2-4-2-----|-2-2-2-4-2-|-----------|--2-2-2---|
|-0-0-0-0-0-----|-0-0-0-0-0-|-2-2-2-4-2-|--0-0-0---|
|---------------|-----------|-0-0-0-0-0-|----------|
|---------------|-----------|-----------|----------|

A                           D                      A                   D              
THINK I’M GOING DOWN TO THE WELL TONIGHT I’M GONNA DRINK TILL I GET MY FILL
  A                                 D                                       
I HOPE WHEN I GET OLDER I DON’T SIT AROUND THINKIN’ ABOUT IT, 
A              D
BUT I PROBABLY WILL
          E                                  D
YEAH JUST SITTIN’ BACK TRYING TO RECAPTURE A LITTLE OF THE GLORY OF
     E                                                        D              E
WELL TIME SLIPS AWAY AND LEAVES YOU WITH NOTHING, MISTER, BUT BORING STORIES OF

A             D            A           D
-----------|------------|-----------|-----------|
-----------|------------|-----------|-----------|
-----------|-2-2-2-4-2--|-----------|-2-2-2-4-2-|
-2-2-2-4-2-|-0-0-0-0-0--|-2-2-2-4-2-|-0-0-0-0-0-|
-0-0-0-0-0-|------------|-0-0-0-0-0-|-----------|
-----------|------------|-----------|-----------|
GLORY DAYS  YEAH THEY’LL  GLORY DAYS  IN THE WINK OF
            PASS YOU BY               A YOUNG GIRL’S EYE  GLORY DAYS

A              D              A           
-----------|---------------|-----------|
-----------|---------------|-----------|
-----------|--2-2-2-4-2----|-----------|
-2-2-2-4-2-|--0-0-0-0-0----|-2-2-2-4-2-|
-0-0-0-0-0-|---------------|-0-0-0-0-0-|
-----------|---------------|-----------|
            GLORY D-A--A-YS  

  D            A           D
|------------|-----------|-----------|
|------------|-----------|-----------|
|-2-2-2-4-2--|-----------|-2-2-2-4-2-|
|-0-0-0-0-0--|-2-2-2-4-2-|-0-0-0-0-0-|
|------------|-0-0-0-0-0-|-----------|
|------------|-----------|-----------|
 YEAH THEY’LL  GLORY DAYS  IN THE WINK OF
 PASS YOU BY               A YOUNG GIRL’S EYE  GLORY DAYS

A            D               A           D
-----------|---------------|-----------|-----------|
-----------|---------------|-----------|-----------|
-----------|--2-2-2-4-2----|-----------|-2-2-2-4-2-|
-2-2-2-4-2-|--0-0-0-0-0----|-2-2-2-4-2-|-0-0-0-0-0-|
-0-0-0-0-0-|---------------|-0-0-0-0-0-|-----------|
-----------|---------------|-----------|-----------|
GLORY DAYS  GLORY D-A--A-YS

-----------|---------------|-----------|-----------|
-----------|---------------|-----------|-----------|
-----------|--2-2-2-4-2----|-----------|-2-2-2-4-2-|
-2-2-2-4-2-|--0-0-0-0-0----|-2-2-2-4-2-|-0-0-0-0-0-|
-0-0-0-0-0-|---------------|-0-0-0-0-0-|-----------|
-----------|---------------|-----------|-----------|
 ALRIGHT     OH YEAH         ALRIGHT     COME ON NOW

-----------|---------------|-----------|-----------|
-----------|---------------|-----------|-----------|
-----------|--2-2-2-4-2----|-----------|-2-2-2-4-2-|
-2-2-2-4-2-|--0-0-0-0-0----|-2-2-2-4-2-|-0-0-0-0-0-|
-0-0-0-0-0-|---------------|-0-0-0-0-0-|-----------|
-----------|---------------|-----------|-----------|
 ALRIGHT     OH YEAH         ALRIGHT     COME ON NOW

-----------|---------------|-----------|-----------|
-----------|---------------|-----------|-----------|
-----------|--2-2-2-4-2----|-----------|-2-2-2-4-2-|
-2-2-2-4-2-|--0-0-0-0-0----|-2-2-2-4-2-|-0-0-0-0-0-|
-0-0-0-0-0-|---------------|-0-0-0-0-0-|-----------|
-----------|---------------|-----------|-----------|
 WHOO OO     OOH OOOH        WHOO OO     OOH  OOH

------------|----------------|--------------|-------------|
------------|----------------|--------------|-------------|
------------|---2-2-2-4-2----|--------------|--2-2-2-4-2--|
-2-2-2-4-2--|---0-0-0-0-0----|--2-2-2-4-2---|--0-0-0-0-0--|
-0-0-0-0-0--|----------------|--0-0-0-0-0---|-------------|
------------|----------------|--------------|-------------|
ALRIGHT BOYS  KEEP ON ROCKIN   KEEP ON GOING

-----------|---------------|-------------|-----------|
-----------|---------------|-------------|-----------|
-----------|--2-2-2-4-2----|-------------|-2-2-2-4-2-|
-2-2-2-4-2-|--0-0-0-0-0----|--2-2-2-4-2--|-0-0-0-0-0-|
-0-0-0-0-0-|---------------|--0-0-0-0-0--|-----------|
-----------|---------------|-------------|-----------|
                            BRING IT HOME  YEAH YEAH

-------------|---------------|-----------|-----------|
-------------|---------------|-----------|-----------|
-------------|--2-2-2-4-2----|-----------|-2-2-2-4-2-|
--2-2-2-4-2--|--0-0-0-0-0----|-2-2-2-4-2-|-0-0-0-0-0-|
--0-0-0-0-0--|---------------|-0-0-0-0-0-|-----------|
-------------|---------------|-----------|-----------|
BRING IT HOME   OOH  OOH 

-----------|---------------|-----------|-----------|
-----------|---------------|-----------|-----------|
-----------|--2-2-2-4-2----|-----------|-2-2-2-4-2-|
-2-2-2-4-2-|--0-0-0-0-0----|-2-2-2-4-2-|-0-0-0-0-0-|
-0-0-0-0-0-|---------------|-0-0-0-0-0-|-----------|
-----------|---------------|-----------|-----------|

            
            
Suggest correction
Creating personal tab
Creating personal tab
You can edit any tab online and save it as your Personal.

You can edit, replace or remove any tab part or add personal notes – all changes will be seen only by you.

Personal tabs can be accessed anytime from any device, even offline.
Learn more »
comments
print report bad tab
guest
You may want to rate the tab now too:
select rating
Wanna post a correction for this tab? Suggest correction