Oops, an error
Loading. Please wait.

The Man Who Got Away chords

181 views 1 this week
no commentswrite comment
1 2 3 4 5
3 more votes to show rating
add to favorites
×
Save as Personal and add changes to this tab that will be seen only by you. Learn more ›
×
You can save this tab as Personal to edit and correct it or add notes. All changes will be seen only by you. Learn more »
launch autoscroll
font size
0
reset
transpose
0
reset
display chords
guitar tuner
edit
Autoscroll
slow
fast
+/-
esc
set tempo
stop
Author
Strumming
There is no strumming pattern for this song yet. and get +5 IQ
[Intro]
e|--10-----|--10-----|--10-----|--10-----|--10-----|--10-----|--10-----|--10-----|
B|--11-----|--10-----|--10-----|--10-----|--11-----|--10-----|--10-----|--10-----|
G|--12-----|--12-----|--12-----|--10-----|--12-----|--12-----|--12-----|--10-----|
D|--12-----|--12-----|--10-----|--10-----|--12-----|--12-----|--10-----|--10-----|
A|--10-----|--10-----|---------|---------|--10-----|--10-----|---------|---------|
E|---------|---------|---------|---------|---------|---------|---------|---------|

[Organ/guitar riff]
e|-----------------|-----------------|-----------------|-----------------|
B|--1----1--1---1--|--1----1--1---1--|--1----1--1---1--|--1----1--1---1--|
G|--0----3--3---2--|--0----2--2---0--|--0----3--3---2--|--0----2--2---0--|
D|--3----3--3---3--|--3----3--3---3--|--3----3--3---3--|--3----3--3---3--|
A|-----------------|-----------------|-----------------|-----------------|
E|-----------------|-----------------|-----------------|-----------------| - repeat once

[Verse 1]
C
Last night I went to the Coronado
C
I bought my ticket and I found my seat
C
It was a new adventure straight from Hollywood
C
Light's went down, as I turned the heat
          Gm                  Dm
They went here from the final scene
        Bb               C
Burning rubber, spilling gasoline
       Gm             Dm
As the credits rolled away
                Bb           C
They were still chasing, the man who got away

[Verse 2]
C
Well, every nightfall, weeks and weeks now
C
I beat the traffic, I beat the heat now
C
For two hours I couldn't believe now
C
The man who got away was me
       Gm                  Dm
I went here from the final scene
        Bb                C
Burning rubber, spilling gasoline
       Gm             Dm 
As the credits rolled away
                Bm          C
They were still chasing the man who got away

[Organ Solo]
C                 Bb         G

[Verse 3]
C
Drove into Stockton, my radio went dead
C
That's when I heard what the newsman said
C
He said, "armed robbery on the ten-hundred block"
C
There was two men involved and one man shot
C
And one was accomplice, made the payday
C
With a 45 he blew the cashier away, way
C
Last seen headed on the state highway
C
Driving a late model Chevrolet
        Gm                      Dm
I went screaming from the final scene
             Bb                      C
In a hail of bullets and flaming and gasoline
       Gm             Dm
As the credits rolled away
                Bb          C
They were still chasing the man who got away, man that got away, man that got away, man that got away

[Outro]
 -repeat and fade
Gm             F        C

            
            
Suggest correction
Creating personal tab
Creating personal tab
You can edit any tab online and save it as your Personal.

You can edit, replace or remove any tab part or add personal notes – all changes will be seen only by you.

Personal tabs can be accessed anytime from any device, even offline.
Learn more »
Give kudos to tab author, rate the tab!
1 2 3 4 5
comments
print report bad tab
guest
You may want to rate the tab now too:
select rating
Wanna post a correction for this tab? Suggest correction