Oops, an error
Loading. Please wait.
We have an official Thunder Road tab made by UG professional guitarists. Check out the tab »
×
5,134 views 9 this week
no commentswrite comment
1 2 3 4 5
2 more votes to show rating
add to favorites
×
Save as Personal and add changes to this tab that will be seen only by you. Learn more ›
×
You can save this tab as Personal to edit and correct it or add notes. All changes will be seen only by you. Learn more »
launch autoscroll
font size
0
reset
guitar tuner
backing track
0:00
0:00
edit
Autoscroll
slow
fast
+/-
esc
set tempo
stop
Difficulty
intermediate
G:-------------------------------------------------------------------|
D:-------------------------------------------------------------------|
A:---------5-55-555--------1-11-111----------------------------------|
E:-1-11-111--------1-11-111--------1-11-1115-55-5556-66-6668-88-888--| X2

Yeah, it's pretty simple and this is accurate, but it gets a little tricky here. This is 
first tab so i'm not sure what a slide is but my best guess it / so yeah.
/=Slide.

G:------------------------------------------------------------------------|
D:------------------------------------------3--3-32-2-22--3/5-3----3/5-3--|
A:----3/5--3-31-31-1---3/5--3-3---3/5--3-3---------0-----1------51------5-|
E:-1----------------1----------1--------------1---------------------------|

Ok, its pretty hard but it's simpler if you listen to the song. It has weird timing, but 
you get the rythm its not too hard. Now is the breakdown, this song has billions of 
hehe.

G:---------------------------------------------------|
D:-------------------------8-7-5--------8-7-55555555-|
A:-1-0--3-5-78--10-12/----------8-7-5--3-------------|
E:-----3--------------6-6-6--------------------------|

Now repeat the first time. Its not the hard to copy and paste so ill just copy it here:

G:-------------------------------------------------------------------|
D:-------------------------------------------------------------------|
A:---------5-55-555--------1-11-111----------------------------------|
E:-1-11-111--------1-11-111--------1-11-1115-55-5556-66-6668-88-888--| X2

Now heres a really random and weird part. Like I said, this song has SOO many parts on bass lol.

G:---------------------------------------------------------------------------|
D:---3/5-3-------------------------------------------------------------------|
A:---------3---------------------------------------5-55-5555-55-5551-11-1113-|
E:-1---------1--3-56-66-6668-88-8881-11-1111-11-111--------------------------|

G:-------------------------------------------------------------------------|
D:-------------------------------------------------------------------------|
A:-33-3331-11-1113-33-333---------5-55-555----------------3333333333333333-|
E:------------------------1-11-111--------6-665-553-331-11-----------------|

Ok, its hard to remember all the notes. Now its the little slidey part and the breakdown 
a little change and then keeps changing from there. CHANGES!!! SO MANY!!!

G:------------------------------------------------------------------------|
D:------------------------------------------3--3-32-2-22--3/5-3----3/5-3--|
A:----3/5--3-31-31-1---3/5--3-3---3/5--3-3---------0-----1------51------5-|
E:-1----------------1----------1--------------1---------------------------|

G:----------------------------------------------------------------------|
D:----------------------------7-7-----7-7----8-8----8-8--5-3-2-0--------|
A:-1-0--3-5-78--10-12/-------7----7--7---7--8---8--8---8--------3-1-0---|
E:-----3--------------6-6-655------55-----66-----66-------------------3-|

G:------------------------------------------------------------|
D:------------------------------------------------------------|
A:---------3-------11111111111111113333333333333333-----------|
E:-1-----------------------------------------------11111111---|

OK! One last part! The FINALE! lol:

G:----------------------------------------------------------------------------|
D:----------------------------------------------------------------------------|
A:----------3--3-3-33-----------1--1-1-11---------3--3-3-331--1-1-113--3-3-33-|
E:-1--1-1-11---------1--1-1-1-11---------1--1-1-11----------------------------|

G:------------------------------------------------------------------------|
D:--------------------------------------------------------8-7-5-----------|
A:----------3--3-3-33---------1--1-1-11---------3--3-3-33-------8-7-5-----|
E:-1--1-1-11---------1--1-1-11---------1--1-1-11----------------------8---|

Repeat both these parts and you're done! woo hoo! lol my first tab and its definitly 
my teacher taught me it.

            
            
Suggest correction
Creating personal tab
Creating personal tab
You can edit any tab online and save it as your Personal.

You can edit, replace or remove any tab part or add personal notes – all changes will be seen only by you.

Personal tabs can be accessed anytime from any device, even offline.
Learn more »
Give kudos to tab author, rate the tab!
1 2 3 4 5
comments
print report bad tab
guest
Wanna post a correction for this tab? Suggest correction