Oops, an error
Loading. Please wait.

Thundercrack tab

version 1
version 1

Whole song

3,979 views 1 this week
2 commentsread comments
1 2 3 4 5
1 last vote to show rating
add to favorites
×
Save as Personal and add changes to this tab that will be seen only by you. Learn more ›
×
You can save this tab as Personal to edit and correct it or add notes. All changes will be seen only by you. Learn more »
launch autoscroll
font size
0
reset
how to read this tab
guitar tuner
edit
Autoscroll
slow
fast
+/-
esc
set tempo
stop
Author
I saw somebody had requested this, and I'm a big Bruce fan so here ya go.
My friend taught me this one a while back.

           G
 Well, her brains they rattle and her bones they shake
 G                         D     G
 Oh she's a angel from the inner lake
     G
 Her brains they rattle and her bones they shake
 G                         D     G
 Oh she's a angel from the inner lake
    G
Her brains they rattle and her bones they shake
 G                         D     G
 Oh she's a angel from the inner lake
    G
She give me all the lovin'  that a good man can take
 G                         D     G
 Oh she's a angel from the inner lake

G D C D x8

G      D     C     D
Sha na na na na ah oh oh
G      D     C     D
Sha na na na na ah oh oh
G      D     C     D
Sha na na na na ah oh oh
G      D     C     D
Sha na na na na ah oh oh
G             C
Thundercrack, baby's back

G                D               C            D
This time she'll tell me how she really feels
G            D           C         D
And bring me down to her lightning shack
G       D        C       D
You can watch my partner reeling
G             C
She moves up, she moves back
G                      D
Out on the floor there ain't nobody cleaner
G                                  C
She does this thing she calls the "Jump back Jack"
G                        D
She's got the heart of a ballerina

G                 D      C           D
Straight from the Bronx, hung on the line
G                        D                   C      C#  D
She slips she slides she slops she bops, she bumps, she grinds
G                    D              C                D
Even them dance hall hacks from the west side of the tracks
G       D                  C
Move in close to catch her timing
G             C
She moves up, she moves back
G                D
Out on the floor there ain't nobody cleaner
G                                  C
She does this thing she calls the "Jump back Jack"
G                        D
She's got the heart of a ballerina

G                         C
She ain't no little girl, she ain't got no curls
G                            D
Her hair ain't brown and her eyes ain't either
G
Round and round and round and round
C
And round and round and round and round
G
And round and round and round and round
D
And round and round and round and round
      Em                 Bm
My heart's wood, she's a carpenter
         Am                          C         D
She's an angel in the night what she does is alright
G     D       C      D
Dance with me partner
G     D       C      D
Dance with me partner
G     D       C
Dance with me partner
         Em                                 G
'Til the dawn, oh 'til the dawn all night long


Em C x3 Am Bm x2
Whoooh.....
Em C x3 Am Bm x2
Whoooh.....

Sorry, I didn't tab the guitar solo. It is in G major, and it isn't that hard to figure 
I do have some riffs from the solo, however, I got about half of the solo. It is not 
and there are a few small errors here. This could be used as a guideline.

At one point he plays:
e|--------------------------------------------------------------------------|
B|--------------------------------------------------------------------------|
G|--12----------12--12----------12----------12--12--------------------------|
D|------14--12----------14--12------14--12----------14--12------------------|
A|--------------------------------------------------------------------------|
E|--------------------------------------------------------------------------|

he plays that 4 times then moves on to:

e|--------------------------------------------------------------------------|
B|--15b17--15--13--12-------------------------------------------------------|
G|---------------------14--12-------------------------12--------------------|
D|-----------------------------14--12---------12--14------------------------|
A|-------------------------------------12/14--------------------------------|
E|--------------------------------------------------------------------------|

then the above x2

e|--------------------------------------------------------------------------|
B|--------------------------------------------------------------------------|
G|-----------------12-------------------------------------------------------|
D|---------12--14------14---------------------------------------------------|
A|--12/14-------------------------------------------------------------------|
E|--------------------------------------------------------------------------|

play that 8 times
then:

e|--------------------------------------------------------------------------|
B|---------------------15b17--15--13--12------------------------------------|
G|-----------------12---------------------14--12----------------------------|
D|---------12--14---------------------------------14--12---------12--14-----|
A|--12/14-------------------------------------------------12/14-------------|
E|--------------------------------------------------------------------------|

that twice, then:

e|--------------------------------------------------------------------------------|
B|--------------------------------------------------------------------------------|
G|-----------------12--11--12-----------------------------------------------------|
D|---------12--14-----------------------------------------------------------------|
A|--12/14-------------------------------------------------------------------------|
E|--------------------------------------------------------------------------------|

play the above 8 times. I didn't get the rest of the solo after that, sorry.

G             C
Thundercrack, baby's back

G                D               C            D
This time she'll tell me how she really feels
G            D           C         D
And bring me down to her lightning shack
G       D        C       D
You can watch my partner reeling
G             C
She moves up, she moves back
G                D
Out on the floor there ain't nobody cleaner
G                                  C
She does this thing she calls the "Jump back Jack"
G                        D
She's got the heart of a ballerina

G                         C
She ain't no little girl, she ain't got no curls
G                            D
Her hair ain't brown and her eyes ain't either
G
Round and round and round and round
C
And round and round and round and round
G
And round and round and round and round
D
And round and round and round and round
      Em                 Bm
My heart's wood, she's a carpenter
         Am                          C         D
She's an angel in the night what she does is alright
G     D       C      D
Dance with me partner
G     D       C      D
Dance with me partner
G     D       C      D
Dance with me partner
G     D       C      D
All night

G D C D until end of song.

            
            
Suggest correction
Creating personal tab
Creating personal tab
You can edit any tab online and save it as your Personal.

You can edit, replace or remove any tab part or add personal notes – all changes will be seen only by you.

Personal tabs can be accessed anytime from any device, even offline.
Learn more »
Give kudos to tab author, rate the tab!
1 2 3 4 5
comments
print report bad tab
2 comments total.
0 reply
Sloopy 1,141 Dec 23, 2008 05:41 PM

The intro should be F# slide to G.

+1 reply
rockin83 101 Mar 07, 2009 03:14 AM

It's not an F# slide to G. I have a software that slows down the song. No slide. You got the chords right for the most part though.

guest
You may want to rate the tab now too:
select rating
Wanna post a correction for this tab? Suggest correction