Oops, an error
Loading. Please wait.

What Love Can Do solo tab

1,546 views 3 this week
no commentswrite comment
1 2 3 4 5
1 last vote to show rating
add to favorites
×
Save as Personal and add changes to this tab that will be seen only by you. Learn more ›
×
You can save this tab as Personal to edit and correct it or add notes. All changes will be seen only by you. Learn more »
launch autoscroll
font size
0
reset
how to read this tab
guitar tuner
edit
Autoscroll
slow
fast
+/-
esc
set tempo
stop
Este es el solo de What Love can do, una cancion muy especial. Es possible que sea mas 
pero así tambien queda bien. Si hay algun fallo por favor me lo podeis comunicar 
a: kuffy_93@hotmail.com

Para todos los fans de Bruce Springsteen. Víctor Tort


E--------------------------------------------|
B-----------------------------------3---5----|
G-----------4--4----2--0--0-0----4-----------|
D---2---5------------------------------------|
A--------------------------------------------|
E--------------------------------------------|

E----------------------------------------------|
B----------------------------------------------|
G--------2--4--4----2--0--2--------------------|
D-----5-----------------------2----------------|
A----------------------------------------------|
E----------------------------------------------|

E--------------------------------------------|
B-----------------------------------3---5----|
G-----------4--4----2--0--0-0----4-----------|
D---2---5------------------------------------|
A--------------------------------------------|
E--------------------------------------------|

E--------------------------------------------|
B--------------------------------------------|
G---------2---4---2---4--2--0----------------|
D-----5-----------------------2--------------|
A--------------------------------------------|
E--------------------------------------------|

E--------------------------------------------|
B--------------------------------5-----------|
G-----------4---2---4--2--0------------------|
D-------5------------------------------------|
A--------------------------------------------|
E--------------------------------------------|

            
            
Suggest correction
Creating personal tab
Creating personal tab
You can edit any tab online and save it as your Personal.

You can edit, replace or remove any tab part or add personal notes – all changes will be seen only by you.

Personal tabs can be accessed anytime from any device, even offline.
Learn more »
Give kudos to tab author, rate the tab!
1 2 3 4 5
comments
print report bad tab
guest
Wanna post a correction for this tab? Suggest correction