Oops, an error
Loading. Please wait.
We have an official Treasure tab made by UG professional guitarists. Check out the tab »
×

Treasure tab

version 1
version 1

Whole song

Interactive

234,839 views 318 this week
11 commentsread comments
1 2 3 4 5
x 39
add to favorites
×
Save as Personal and add changes to this tab that will be seen only by you. Learn more ›
×
You can save this tab as Personal to edit and correct it or add notes. All changes will be seen only by you. Learn more »
launch autoscroll
font size
0
reset
how to read this tab
guitar tuner
backing track
0:00
0:00
edit
Autoscroll
slow
fast
+/-
esc
set tempo
stop
Tabbed by Josh Embling. Here's my cover if you want extra help (I had to drop the tuning 
by a semi tone because of YouTube's copyright reasons).
Enjoy: http://www.youtube.com/watch?v=1aZedhlmCXg

[Intro:]

e--6-6-6-6-6--X--|
B--6-6-6-6-6--X--|
G--7-7-7-7-7--X--|
D--8-8-8-8-8--X--|
A-------------X--|
E-------------X--|

[Verse] (X3):

e-----------------------------X-X--------------------X-X-------------------------------|
B--8---8--8--X-X---6--4---4---X-X--4---8---6---6--6--X-X-4-6--8----8---8---X-X--8---6--|
G--8---8--8--X-X-8-7--5---5---X-X--5---8---7---7--7--X-X-5-7--8----8---8---X-X--8---7--|
D--6---6--6--X-X---8--6---6---X-X--6---6---8---8--8--X-X-5-8--10---10--10--X-X--10--8--|
A--------------------------------------------------------------------------------------|
E--------------------------------------------------------------------------------------|

[Verse] (alternate ending):
___________________________________________¬¬¬¬¬¬¬¬¬¬¬¬¬¬¬¬¬¬¬¬¬¬¬¬¬ x2

e-----------------------------X-X----------6--6---6--6---6--6---6--6---|
B--8---8--8--X-X---6--4---4---X-X--4---8---6--6---6--6---6--6---6--6---|
G--8---8--8--X-X-8-7--5---5---X-X--5---8---7--7---7--7---7--7---7--7---|
D--6---6--6--X-X---8--6---6---X-X--6---6---8--8---8--8---8--8---8--8---|
A----------------------------------------------------------------------|
E----------------------------------------------------------------------|


[Chorus] (X5):

e--6/8--6---3-----|
B-----------------|
G-----------------|
D-----------------|
A-----------------|
E-----------------|

End chorus with the ¬¬¬¬¬¬¬ section of the alternate ending verse.


That's pretty much the whole song, enjoy!



************************************

| /  Slide up

************************************

            
            
Suggest correction
Creating personal tab
Creating personal tab
You can edit any tab online and save it as your Personal.

You can edit, replace or remove any tab part or add personal notes – all changes will be seen only by you.

Personal tabs can be accessed anytime from any device, even offline.
Learn more »
comments
print report bad tab
11 comments total. Showing first comments.
0 reply
DaNnYCoWBOY 10 Jun 26, 2013 05:06 PM

Thanks bro!!

0 reply
DaNnYCoWBOY 10 Jun 26, 2013 05:07 PM

Excellent job!

0 reply
RedDemon 103 Jul 26, 2013 09:57 AM

Great job, but I noticed when listening to the outro that he's playing the Abmaj7 chord with a different voice. He includes major third C note:

e-------------|
B--8---x-x-8--|
G--5---x-x-5--|
D--6---x-x-6--|
A-------------|
E-------------|

guest
You may want to rate the tab now too:
select rating
Wanna post a correction for this tab? Suggest correction