Oops, an error
Loading. Please wait.

Versace On The Floor tab

version 1
version 1

Whole song

  • It is accurate and really it can help beginners to play this song greatly.

Video

27,610 views 426 this week
no commentswrite comment
1 2 3 4 5
x 3
add to favorites
×
Save as Personal and add changes to this tab that will be seen only by you. Learn more ›
×
You can save this tab as Personal to edit and correct it or add notes. All changes will be seen only by you. Learn more »
launch autoscroll
font size
0
reset
how to read this tab
guitar tuner
edit
Autoscroll
slow
fast
+/-
esc
set tempo
stop
Author
Difficulty
About this tab version
It is accurate and really it can help beginners to play this song greatly. Was this info helpful? Yes No
Versace on the Floor - Bruno Mars

Arranged by: Mj Casiano

STANDARD TUNING

NO CAPO

\ - backslide
/ - slide
<>- harmonics
()- slap harmonics
s - strum
B - Bass (beat)
S - Snare (beat)
X - slap
h - hammer on
x - Dead Note
b - bend


Verse:

e ---5-3-2-0------------0h2-----------0----2-3-2-------------------------------|
B -3-3-3-3--------------3---------3-3------3------0--3-5-----------------------|
G -2---------------2-2----------0--------------------4-6-----------------------|
D -0-------------2------------0------------------------7-----------------------|
A ---------------------------------------------------0-------------------------|
E ------------2-------------3--------------3-----------------------------------|


e -----5-3-2-0------------------0h2-2------------0--2-3-2------------------------|
B -3---3-3-3----------------0---3---3------3--3-----3------0--3--5---------------|
G -2-2--------------2-2---2--------------0--------------------4--6---------------|
D -0--------------2--------------------0-------------------------7---------------|
A ------------------------------------------------------------0------------------|
E -------------2--------------------3---------------3----------------------------|



e -----5-5-5---5---------5--2-2-2------3-0------------0h2------------|
B ----------------(12)--------3-3------3---3--------3----------------|
G -5---------5-------------------------------3----3------------------|
D -7-7------------------------------0--------------------------------|
A -0-------------------2---------------------------------------------|
E --------------------------------3------------3---------------------|



e ---0-2-3-3/5------0--2-3-5----2-0-------------------0-------------|
B -3---3-3-----3--3----3-----3-------------2-------2--2-------------|
G ---------------------------------------2-------2----2-------------|
D -------------------------------------2------2---------------------|
A ---------------------2-------------0------------------------------|
E -----0------------------------------------------------------------|

REFRAIN:

e ------0-2-3--5-5---5-------5---5h7-------7----7-7-7-7--5-5-7-------|
B -3-3--0-3-3--0---7---0---7-5-7--------5--7----7-7-7-7--------------|
G -2-2---------0---------0---6--------6------------------------------|
D -------------5-----------------------------------------------------|
A ---------------------------0---------------------------------------|
E --------------------------------------------7----------------------|



e -8-10--7-5-5/7--3-----------0--5-3-2--0--7-5-3-2-2-0-0---2--------------2------------------|
B -5-7------------3---3---3-3-----------7--7------------------2/3---0--0--3-0-2/3-3----------|
G ------------------0------------------------------------------------------------------------|
D -------0-----------------------------------------------------------------------------------|
A -0----------------------------------------------------------------------0------------------|
E ----------------3--------------2------7------0---------2--------3--------------------------|

CHORUS:

e -----------5----------2-2--5-5---3-3-----2-2----0-0-------2----2---------------|
B -3-----------------------------------------------------3--3--0-3-0-2/3-3-------|
G -2-----------------------------------------------------------------------------|
D -0----0------------------------------------------------------------------------|
A ----x---x------x----x-----------------x-------------x----------0---------------|
E ----x---x----2-x--2-x----------3------x-------3-----x-----3--------------------|


e -----------5----------2-2--5-5---3-3-----2-2----0-0-----------------|
B -3-----------------------------------------------------3--0---------|
G -2------------------------------------------------------------------|
D -0----0-------------------------------------------------------------|
A ----x---x------x----x-----------------x-------------x---------------|
E ----x---x----2-x--2-x----------3------x-------3-----x-----3---------|


vERSE:


e -----5-3-2-0------------------0-2------------0--2-3-2------------------------|
B -3---3-3-3----------------0---3-3------3--3-----3------0--3--5---------------|
G -2-2--------------2-2---2------------0--------------------4--6---------------|
D -0--------------2------------------0-------------------------7---------------|
A ----------------------------------------------------------0------------------|
E -------------2------------------3---------------3----------------------------|


e ---5-3-2-0-----7-5-----2--2h3-0-----0--2-3-2----------------------|
B -3-3-3-3------------7--3--3-----3-3----3-3-3-0-3-5----------------|
G -2---------------------------------------------4-6----------------|
D -0----------4------------------------------------7----------------|
A -----------------------------------------------0------------------|
E --------------------------3------------3--------------------------|



e ---5-5-5--7/10-7---5---5-5----7-----0-2---3-2-0------------------------------------|
B ---------------------8-----------3--0-3---3-3---------------------------|
G -5-----------------------------------------------------------------|
D -7-----------------------------------------------------------------|
A -0-----------------------------------------------------------------|
E -----------------7----------3-----------3----------------------------|


e ---0-2-3-3/5------0--2-3-5----5/7-------5---5-7/10---9-7h9p7-5---5h7p5---------------|
B -3---3-3-----3--3----3-----3----------5------------------------7---------------------|
G ------------------------------------6------------------------------------------------|
D -------------------------------------------------------------------------------------|
A ---------------------2------------0--------------------------------------------------|
E -----0---------------------------------------------0---------------------------------|


REFRAIN:

e -5-5-2-5--2---5---5h7-------7----7-7-7-7--5-5-7-------|
B -0------------5-7--------5--7----7-7-7-7--------------|
G -0------------6--------6------------------------------|
D ------------------------------------------------------|
A --------------0---------------------------------------|
E -3-----------------------------7----------------------|



e -8-10--7-5-5/7--3-----------0--5-3-2--0--7-5-3-2-2-0-0---2--------------2------------------|
B -5-7------------3---3---3-3-----------7--7------------------2/3---0--0--3-0-2/3-3----------|
G ------------------0------------------------------------------------------------------------|
D -------0-----------------------------------------------------------------------------------|
A -0----------------------------------------------------------------------0------------------|
E ----------------3--------------2------7------0---------2--------3--------------------------|

CHORUS:

e -----------5----------2-2--5-5---3-3-----2-2----0-0-------2----2---------------|
B -3-----------------------------------------------------3--3--0-3-0-2/3-3-------|
G -2-----------------------------------------------------------------------------|
D -0----0------------------------------------------------------------------------|
A ----x---x------x----x-----------------x-------------x----------0---------------|
E ----x---x----2-x--2-x----------3------x-------3-----x-----3--------------------|


e -----------5----------2-2--5-5---3-3-----2-2----0-0-----------------|
B -3-----------------------------------------------------3--0---------|
G -2------------------------------------------------------------------|
D -0----0-------------------------------------------------------------|
A ----x---x------x----x-----------------x-------------x---------------|
E ----x---x----2-x--2-x----------3------x-------3-----x-----3---------|


ADLIB:

e -2-3-2-3-2-----------------------------------------------------------------------------|
B -3---------3-3/5---3---2-5----0h2-3-2-3----3-2-3-----3-2-3/5---3\2---------------------|
G ---------------------4-----2------------2--------2-2---------------2/4------2----------|
D ------------------------------------------------------------------------2/4---4\2p0----|
A -----------------0----------------2--------------------------0-------------------------|
E -3-------------------------------------------------------------------------------------|



                                                         T            T
e -5h7-5-----5h7-5--------------------------------10-8-6--5------------6---------|
B -------7---------7----7-5---3-0------3h5/7-5-3---------------------------------|
G ---------7---------7-------------2h4----------------------MOVE-CAPO------------|
D ------------------------------------------------------------1-FRET-------------|
A --------------------------0----------------------------------------------------|
E -----0------------------------------------------6-------5------------6---------|


REFRAIN

e ------------------2---0---------------3-2-------------/7---5-5---------------|
B ----0-3-3-0--0h3---------0-3-3-0--0h3-----0-3-3-0-0h3-----------0-3-3-0------|
G -----------------------------------------------------------------------------|
D -----------------------------------------------------------------------------|
A --------------------0-------------------2----------------0-------------------|
E --3--------------------------------------------------------------------------|




e ---3-3-3-3-2-0------5-7--7-7-7-5-5p3-5-7--7-7-5-3-5---------------|
B ---------------7------7-------------------------------------------|
G ------------------------------------------------------------------|
D ------------------------------------------------------------------|
A --------------------------------------------0---------------------|
E -0---------------7-----------3------------------------------------|


e -2-----5/7-5---7-------5-5---3-3-2-2--0-0---2--/7-5-3-5--------|
B -3---------------7-7-7--------------------3-3------------------|
G -2-------------------------------------------------------------|
D -0---0-------4-------------------------------------------------|
A ---x-------------------------------------------0---------------|
E ---x-----------------------3-----------------------------------|



e -2------------0--5-7-5--------5-5---3-3-2-2-0-0----2----2------------------------|
B -3---------3------------7-7-7-------------------3--3-0--3-0-2/3-3----------------|
G -2-------2-----------------------------------------------------------------------|
D -0---0-----------4---------------------------------------------------------------|
A ---x----------------------------------------------------0------------------------|
E ---x------------------------------3----------------3-----------------------------|

OUTRO

e ----0--5----------------------------------------------------------|
B -3--1--7----------------------------------------------------------|
G -2--0--7----------------------------------------------------------|
D ------------------------------------------------------------------|
A -1--3--5----------------------------------------------------------|
E ------------------------------------------------------------------|


CONGRATS!!!!



FB: http://www.facebook.com/mjcasiano.fingerstyle
YT: http://www.youtube.com/c/mjcasiano

Credits to Mr. MJ Casiano 

            
            
Suggest correction
Creating personal tab
Creating personal tab
You can edit any tab online and save it as your Personal.

You can edit, replace or remove any tab part or add personal notes – all changes will be seen only by you.

Personal tabs can be accessed anytime from any device, even offline.
Learn more »
Give kudos to tab author, rate the tab!
1 2 3 4 5
comments
print report bad tab
guest
You may want to rate the tab now too:
select rating
Wanna post a correction for this tab? Suggest correction