Oops, an error
Loading. Please wait.
We have an official Its Only Love tab made by UG professional guitarists. Check out the tab »
×
6,774 views 15 this week
no commentswrite comment
1 2 3 4 5
1 last vote to show rating
add to favorites
×
Save as Personal and add changes to this tab that will be seen only by you. Learn more ›
×
You can save this tab as Personal to edit and correct it or add notes. All changes will be seen only by you. Learn more »
launch autoscroll
font size
0
reset
guitar tuner
backing track
0:00
0:00
edit
Autoscroll
slow
fast
+/-
esc
set tempo
stop
Author
Difficulty
Standard Tuning (E-A-D-G)

This song is easy but fun to play.. Try to make some nice bass fill, believe me it sounds 
great! Enjoy.

Main Riff/Bass


E-----------------5-------------1--1-1--1--1-1--->
A----------5--3-------1--1/8/0-------------------> 
D------------------------------------------------>
G------------------------------------------------>

Brigde:

E-------------------------------4-4-4------------>
A-----3--3-3---5--5-5---1-1-1--------------------> Repeat Two Times and then
D------------------------------------------------>
G------------------------------------------------>

"Over and over and over again"

E-6-6--6---6-6--6---6-6--6/0--------------------->
A------------------------------------------------> 
D------------------------------------------------>
G------------------------------------------------>


Any Questions? mail me akobsen@hotmail.com

            
            
Suggest correction
Creating personal tab
Creating personal tab
You can edit any tab online and save it as your Personal.

You can edit, replace or remove any tab part or add personal notes – all changes will be seen only by you.

Personal tabs can be accessed anytime from any device, even offline.
Learn more »
Give kudos to tab author, rate the tab!
1 2 3 4 5
comments
print report bad tab
guest
You may want to rate the tab now too:
select rating
Wanna post a correction for this tab? Suggest correction