Oops, an error
Loading. Please wait.

You Belong To Me tab

2,571 views 15 this week
1 commentread comment
1 2 3 4 5
2 more votes to show rating
add to favorites
×
Save as Personal and add changes to this tab that will be seen only by you. Learn more ›
×
You can save this tab as Personal to edit and correct it or add notes. All changes will be seen only by you. Learn more »
launch autoscroll
font size
0
reset
how to read this tab
guitar tuner
edit
Autoscroll
slow
fast
+/-
esc
set tempo
stop
YOU BELONG TO ME 
- BRYAN ADAMS

THIS IS THE ACOUSTIC VERSION IT'S NOT MUCH DIFFERENT AT ALL FROM THE STUDIO RECORDING
THERE'S JUST SOME SLIGHT DIFFERENCES WITH THE ELECTRIC GUITAR BUT THIS IS HOW BRYAN PLAYS IT.

e|-----------------------------------------------------------------|
B|-----------------------------------------------------------------|
G|-----------------------------------------------------------------|
D|--2-2-4--2-2-4--2-2-4--2-2-4--2-2-4--2-2-4--2-2-4--2-2-4--2-2-4--|
A|--0-0-0--0-0-0--0-0-0--0-0-0--0-0-0--0-0-0--0-0-0--0-0-0--0-0-0--|
E|-----------------------------------------------------------------|

e|-----------------------------------------------------------------|
B|-----------------------------------------------------------------|
G|-----------------------------------------------------------------|
D|--2-2-4--2-2-4--2-2-4--2-2-4--2-2-4--2-2-4--2-2-4----------------|
A|--0-0-0--0-0-0--0-0-0--0-0-0--0-0-0--0-0-0--0-0-0----------------|
E|-----------------------------------------------------------------|
   I’D TAKE A NIGHT     TRAIN   I’D TAKE AN   AIRPLANE                     

      Bm  E         
CAUSE YOU BELONG TO ME

e|---------------------------------|
B|---------------------------------|
G|---------------------------------|
D|--2-2-4--2-2-4--2-2-4--2-2-4-----|
A|--0-0-0--0-0-0--0-0-0--0-0-0-----|
E|---------------------------------|

e|-----------------------------------------------------------------|
B|-----------------------------------------------------------------|
G|-----------------------------------------------------------------|
D|--2-2-4--2-2-4--2-2-4--2-2-4--2-2-4--2-2-4--2-2-4--2-2-4---------|
A|--0-0-0--0-0-0--0-0-0--0-0-0--0-0-0--0-0-0--0-0-0--0-0-0---------|
E|-----------------------------------------------------------------|
    I JUST        WANNA  SAY    AIN’T GONNA   LET YOU GET AWAY                            
                                        
      Bm  E         
CAUSE YOU BELONG TO ME

e|-------------------|
B|-------------------|
G|-------------------|
D|--2-2-4--2-2-4-----|
A|--0-0-0--0-0-0-----|
E|-------------------|

              Bm E A   D
I ONLY WANNA H-O-O-OLD YOU
                Bm E A   D
COME ON LET ME H-O-O-OLD YOU
              Bm E A   D
I JUST WANNA H-O-O-OLD YOU

TONIGHT

e|-----------------------------------------------------------------|
B|-----------------------------------------------------------------|
G|-----------------------------------------------------------------|
D|--2-2-4--2-2-4--2-2-4--2-2-4--2-2-4--2-2-4--2-2-4--2-2-4---------|
A|--0-0-0--0-0-0--0-0-0--0-0-0--0-0-0--0-0-0--0-0-0--0-0-0---------|
E|-----------------------------------------------------------------|

e|-----------------------------------------------------------------|
B|-----------------------------------------------------------------|
G|-----------------------------------------------------------------|
D|--2-2-4--2-2-4--2-2-4--2-2-4--2-2-4--2-2-4--2-2-4--2-2-4---------|
A|--0-0-0--0-0-0--0-0-0--0-0-0--0-0-0--0-0-0--0-0-0--0-0-0---------|
E|-----------------------------------------------------------------|
    YOU SAY YOU AIN’T LEAVING   I CAN’T HELP BUT DREAMING

      Bm  E         
CAUSE YOU BELONG TO ME

e|---------------------------------|
B|---------------------------------|
G|---------------------------------|
D|--2-2-4--2-2-4--2-2-4--2-2-4-----|
A|--0-0-0--0-0-0--0-0-0--0-0-0-----|
E|---------------------------------|

e|-----------------------------------------------------------------|
B|-----------------------------------------------------------------|
G|-----------------------------------------------------------------|
D|--2-2-4--2-2-4--2-2-4--2-2-4--2-2-4--2-2-4--2-2-4--2-2-4---------|
A|--0-0-0--0-0-0--0-0-0--0-0-0--0-0-0--0-0-0--0-0-0--0-0-0---------|
E|-----------------------------------------------------------------|
    I’LL TAKE THAT HIGHWAY      I’LL TAKE THE LONG WAY
                                                         
      Bm  E         
CAUSE YOU BELONG TO ME

e|-------------------|
B|-------------------|
G|-------------------|
D|--2-2-4--2-2-4-----|
A|--0-0-0--0-0-0-----|
E|-------------------|

              Bm E A   D
I ONLY WANNA H-O-O-OLD YOU
              Bm E A   D
I JUST WANNA H-O-O-OLD YOU
                Bm E A   D
COME ON LET ME H-O-O-OLD YOU

TONIGHT

e|------------------------------------------------------------|
B|------------------------------------------------------------|
G|------------------------------------------------------------|
D|--2-2-4--2-2-4--2-2-4--2-2-4--2-2-4--2-2-4--2-2-4-----------|
A|--0-0-0--0-0-0--0-0-0--0-0-0--0-0-0--0-0-0--0-0-0-----------|
E|------------------------------------------------------------|
                                       ALRIGHT COME ON

Bm  E  A  D    Bm  E  A  D    Bm  E  A  D  

e|-----------------------------------------------------------------|
B|-----------------------------------------------------------------|
G|-----------------------------------------------------------------|
D|--2-2-4--2-2-4--2-2-4--2-2-4--2-2-4--2-2-4--2-2-4--2-2-4---------|
A|--0-0-0--0-0-0--0-0-0--0-0-0--0-0-0--0-0-0--0-0-0--0-0-0---------|
E|-----------------------------------------------------------------|

e|-----------------------------------------------------------------|
B|-----------------------------------------------------------------|
G|-----------------------------------------------------------------|
D|--2-2-4--2-2-4--2-2-4--2-2-4--2-2-4--2-2-4--2-2-4--2-2-4---------|
A|--0-0-0--0-0-0--0-0-0--0-0-0--0-0-0--0-0-0--0-0-0--0-0-0---------|
E|-----------------------------------------------------------------|
    I’M NOT DRINKING            IT GETS ME THINKING

      Bm  E         
CAUSE YOU BELONG TO ME

e|---------------------------------|
B|---------------------------------|
G|---------------------------------|
D|--2-2-4--2-2-4--2-2-4--2-2-4-----|
A|--0-0-0--0-0-0--0-0-0--0-0-0-----|
E|---------------------------------|

e|-----------------------------------------------------------------|
B|-----------------------------------------------------------------|
G|-----------------------------------------------------------------|
D|--2-2-4--2-2-4--2-2-4--2-2-4--2-2-4--2-2-4--2-2-4--2-2-4---------|
A|--0-0-0--0-0-0--0-0-0--0-0-0--0-0-0--0-0-0--0-0-0--0-0-0---------|
E|-----------------------------------------------------------------|
    WHILE YOU’RE OUT THERE      REMEMBER I’M RIGHT HERE

    Bm  E         
AND YOU BELONG TO ME

e|-------------------|
B|-------------------|
G|-------------------|
D|--2-2-4--2-2-4-----|
A|--0-0-0--0-0-0-----|
E|-------------------|

              Bm E A   D
I ONLY WANNA H-O-O-OLD YOU
              Bm E A   D
I JUST WANNA H-O-O-OLD YOU
                Bm E A   D
COME ON LET ME H-O-O-OLD YOU
                Bm E A   D
COME ON LET ME H-O-O-OLD YOU
                                     
e|---------------------------------------------------|
B|---------------------------------------------------|
G|---------------------------------------------------|
D|--2-2-4--2-2-4--2-2-4--2-2-4--2-2-4--2-2-4---------|
A|--0-0-0--0-0-0--0-0-0--0-0-0--0-0-0--0-0-0---------|
E|---------------------------------------------------|
                                       TONIGHT


            
            
Suggest correction
Creating personal tab
Creating personal tab
You can edit any tab online and save it as your Personal.

You can edit, replace or remove any tab part or add personal notes – all changes will be seen only by you.

Personal tabs can be accessed anytime from any device, even offline.
Learn more »
Give kudos to tab author, rate the tab!
1 2 3 4 5
comments
print report bad tab
1 comment total.
-1 reply
pac21 119 Nov 22, 2015 09:10 AM

chords are wrong.Bm is not in the tune..F#m is correct in the place of Bm. also i'm not sure abot the words

guest
You may want to rate the tab now too:
select rating
Wanna post a correction for this tab? Suggest correction