Oops, an error
Loading. Please wait.

Lets Stick Together bass

version 1
version 1

Whole song

Interactive

5,225 views 15 this week
no commentswrite comment
1 2 3 4 5
x 4
add to favorites
×
Save as Personal and add changes to this tab that will be seen only by you. Learn more ›
×
You can save this tab as Personal to edit and correct it or add notes. All changes will be seen only by you. Learn more »
launch autoscroll
font size
0
reset
guitar tuner
backing track
0:00
0:00
edit
Autoscroll
slow
fast
+/-
esc
set tempo
stop
-------------------------------------------------------------------------------
                             LETS STICK TOGETHER - Bryan Ferry
-------------------------------------------------------------------------------
Tabbed by: WibbleWobble
E-mail: organisedchaos@talktalk.net

Tuning: standard EADG

From "Let's Stick Together" 1976,  bassist John Porter

G|----------------------------------------------------------------------------|
D|---------------------------------------------------------2-2-4-4------3-4---|
A|-----------------------------------------------------3-4----------5-5-------|
E|-5-5-5-5-5-5-5-5-5-5-5-5-5-5-5-5-5-5-5-5-5-5-5-5-5-5------------------------|

G|-5-5--------------5-5-------------------------------------------------------|
D|-----3-4------3-4-----3-4-----------5-5--------------5-5--------------------|
A|----------5-5-------------------3-4-----3-4------3-4-----3-4---7-7-7-7-7-7--|
E|----------------------------5-5--------------5-5----------------------------|

G|----------------------------------------------------------------------------|
D|-------------------------------5-5-----------2------------------------------|
A|-7-8--5-5-5-5-5-5-5-4------3-4-----3-4---4-5--------------------------------|
E|-----------------------5-5--------------------------------------------------|


That's actually pretty much it but instead of sticking to straight A he plays the 
pattern A to G in the 2nd and 3rd verses
G|----------------------------------------------------------------------------|
D|---------5-5-------------5-5------------------------------------------------|
A|-----3-4-----3-4-----3-4-----3-4--------------------------------------------|
E|-5-5-------------5-5--------------------------------------------------------|

            
            
Suggest correction
Creating personal tab
Creating personal tab
You can edit any tab online and save it as your Personal.

You can edit, replace or remove any tab part or add personal notes – all changes will be seen only by you.

Personal tabs can be accessed anytime from any device, even offline.
Learn more »
comments
print report bad tab
guest
You may want to rate the tab now too:
select rating
Wanna post a correction for this tab? Suggest correction