Oops, an error
Loading. Please wait.

Sorry tab

version 2
version 2

Whole song

Interactive

32,047 views 6 this week
2 commentsread comments
1 2 3 4 5
x 6
add to favorites
×
Save as Personal and add changes to this tab that will be seen only by you. Learn more ›
×
You can save this tab as Personal to edit and correct it or add notes. All changes will be seen only by you. Learn more »
launch autoscroll
font size
0
reset
how to read this tab
guitar tuner
edit
Autoscroll
slow
fast
+/-
esc
set tempo
stop
Author
Difficulty
Song:Sorry
Artist:Buckcherry
Tabber:serenade_edy
Email:jevin12@yahoo.com add me friendster n myspace
Tuning:Standard

Intro:
e|-------------------------------------------------|
B|-3-----3-----3------3----------------------------|
G|-2-----2-----3------3----------------------------|(2x)
D|-------------------------------------------------|
A|-------------------------------------------------|
E|-3---3-----3-----3-------------------------------|

Verse:
e|-------------------------------------------------|
B|-3-----3-----3------3----------------------------|
G|-2-----2-----3------3----------------------------|(6x)
D|-------------------------------------------------|
A|-------------------------------------------------|
E|-3---3-----3-----3-------------------------------|

Oh I had alot to say
Was thinking on my time away
I missed you and things weren't the same

Refrain
  
e|-2----4----2----2----------|
B|-3----5----3----2----------|
G|-4----6----2----2----------|
D|-4----6---------4----------|
A|-2----4---------4----------|
E|-x----x---------x----------|

'Cause everything inside it never comes out right
And when I see you cry it makes me wanna die.


Chorus:
e|-2--3---2--4---2---2--3--------------------|
B|-3--3---3--5---2---3--3--2-----------------|
G|-2------4--6---2---2-----2-----------------|
D|--------4--6---4---------2-----------------|
A|--------2--4---4---------------------------|
E|----3---x--x---x------3--------------------|

I'm sorry I'm bad, I'm sorry you're blue
I'm sorry about all the things I said to you
And I know I can't take it back
I love how you kiss, I love all your sounds
And baby the way you make my world go 'round
And I just wanted to say I'm sorry.
 
let it ring u can bend it if u want listen to the song
e|-----------------------|
B|-----------------------|
G|-------15~-------------|
D|-----------------------|
A|-----------------------|
E|-----------------------|




Verse:2

e|-2--3--2---3------------|
B|-3--3--3---3------------|
G|-2-----2----------------|
D|------------------------|
A|------------------------|
E|----3------3------------|

This time I think I'm to blame
It's harder to get through the days
We get older and blame turns to shame

                 (pause on the last chord)
e|-3---3---2--4-------------|
B|-3-2-3-2-3--5-------------|
G|---2---2-4--6-------------|
D|---2---2-4--6-------------|
A|---------2--4-------------|
E|-3---3---x--x-------------|

Chorus:repeat

Thanks hope you like my tab and rate it plzzz byezz

            
            
Suggest correction
Creating personal tab
Creating personal tab
You can edit any tab online and save it as your Personal.

You can edit, replace or remove any tab part or add personal notes – all changes will be seen only by you.

Personal tabs can be accessed anytime from any device, even offline.
Learn more »
comments
print report bad tab
2 comments total.
0 reply
fallenskater488 16 Mar 13, 2008 01:39 PM

wheres the solo?

0 reply
ObnoxiousFiend 10 Mar 27, 2009 02:48 PM

In the intro, check version 2
Instead of this:
|-------------------------|
|-3----3----3----3--------|
|-2----2----3----3--------|
|-------------------------|
|-------------------------|
|---3----3----3----3------|

Try this:
|-------------------------|
|-3----3----3----3--------|
|-0----0----2----2--------|
|-------------------------|
|-------------------------|
|---3----3----3----3------|

guest
You may want to rate the tab now too:
select rating
Wanna post a correction for this tab? Suggest correction