Oops, an error
Loading. Please wait.

Asylum Of Glass tab

version 1
version 1

Whole song

Interactive

34,126 views 24 this week
10 commentsread comments
1 2 3 4 5
x 15
add to favorites
×
Save as Personal and add changes to this tab that will be seen only by you. Learn more ›
×
You can save this tab as Personal to edit and correct it or add notes. All changes will be seen only by you. Learn more »
launch autoscroll
font size
0
reset
how to read this tab
guitar tuner
edit
Autoscroll
slow
fast
+/-
esc
set tempo
stop
Asylum Of Glass
Buckethead
Decoding The Tomb Of Bansheebot

Half step down

e|------------------------------------------|
B|-------------9h10p9-----------------------|
G|----------9------------9------------------|
D|------11----------------11----------------|
A|----9-----------------------9-------------|
E|------------------------------------------|

e|------------------------------------------|
B|------------------------------------------|
G|--------------9h11p9----------------------|
D|-----------9------------9-----------------|
A|-------11-----------------11--------------|
E|----9--------------------------9----------|

e|------------------------------------------|
B|------------------------------------------|
G|-------------14s13------------14s13-------|
D|------------------------------------------|
A|--------12----------------12--------------|
E|----10----------------10------------------|

e|------------------------------------------|
B|-------------9h10p9-----------------------|
G|----------9------------9------------------|
D|------11-----------------11---------------|
A|----9-----------------------9-------------|
E|------------------------------------------|

e|------------------------------------------|
B|------------------------------------------|
G|--------------9h11p9----------------------|
D|-----------9------------9-----------------|
A|-------11-----------------11--------------|
E|----9--------------------------9----------|

e|------------------------------------------|
B|------------------------------------------|
G|------------------------------------------|
D|------------11-12---------------11-12-----|
A|--------12------------------12------------|
E|----10------------------10----------------|

e|------------------------------------------|
B|-------------9h10p9-----------------------|
G|----------9------------9------------------|
D|------11-----------------11---------------|
A|----9-----------------------9-------------|
E|------------------------------------------|

e|------------------------------------------|
B|------------------------------------------|
G|--------------9h11p9----------------------|
D|-----------9------------9-----------------|
A|-------11-----------------11--------------|
E|----9------------------------9------------|

e|------------------------------------------|
B|------------------------------------------|
G|-------------14s13------------14s13-------|
D|------------------------------------------|
A|--------12----------------12--------------|
E|----10----------------10------------------|

e|------------------------------------------|
B|-------------9h10p9-----------------------|
G|----------9------------9------------------|
D|------11-----------------11---------------|
A|----9-----------------------9-------------|
E|------------------------------------------|

e|------------------------------------------|
B|------------------------------------------|
G|--------------9h11p9----------------------|
D|-----------9------------9-----------------|
A|-------11-----------------11--------------|
E|----9--------------------------9----------|

e|------------------------------------------|
B|------------------------------------------|
G|------------------------------------------|
D|------------11-12---------------11-12-----|
A|--------12------------------12------------|
E|----10------------------10----------------|

e|-----------------------------------------|
B|-----------------------------------------|
G|---11---11---9--9----6--6-----9---7------|
D|---7----7----6--6----2--2-----6---4------|
A|---9----9----7--7----4--4-----7---5------|
E|-----------------------------------------|

e|-----------------------------------------|
B|-----------------------------------------|
G|---11---11---9--9----6--6----7-----------|
D|---7----7----6--6----2--2----4-----------|
A|---9----9----7--7----4--4----5-----------|
E|-----------------------------------------|

e|-----------------------------------------|
B|-----------------------------------------|
G|---11---11---9--9---6--6-----9---7--7----|
D|---7----7----6--6---2--2-----6---4--4----|
A|---9----9----7--7---4--4-----7---5--5----|
E|-----------------------------------------|

e|-----------------------------------------|
B|-----------------------------------------|
G|---11--11----9--9---6--6-/-7-7-----------|
D|---7---7-----6--6---2--2-/-4-4-----------|
A|---9---9-----7--7---4--4-/-5-5-----------|
E|-----------------------------------------|

the beggining of the riff seems to be lightly palmuted

e|-------------------------------------------------------|
B|-----------------------------2-3-2---------------------|
G|---------------------1---------------2--4--1--2--------|
D|---4-------------2-----2--------------------------4----|
A|------4-------4----------------------------------------|
E|---------2--5------------------------------------------|

e|-----------------4----2--------------------2h5p4p2-----|
B|-------------5-----5----5---------------3--------------|
G|---------4----------------------------2----------------|
D|--2--6-----------------------------4-------------------|
A|---------------------------------5---------------------|
E|-------------------------------------------------------|

e|-------------------------------------------------------|
B|-----------------------------2-3-2---------------------|
G|---------------------1---------------2--4--1--2--------|
D|---4-------------2-----2--------------------------4----|
A|------4-------4----------------------------------------|
E|---------2--5------------------------------------------|

e|-----------------4----2--------------------2h5p4p2-----|
B|-------------5-----5----5---------------3--------------|
G|---------4----------------------------2----------------|
D|--2--6-----------------------------4-------------------|
A|---------------------------------5---------------------|
E|-------------------------------------------------------|

e|-------------------------------------------------------|
B|-----------------------------2-3-2---------------------|
G|---------------------1---------------2--4--1--2--------|
D|---4-------------2-----2--------------------------4----|
A|------4-------4----------------------------------------|
E|---------2--5------------------------------------------|

e|-----------------4----2--------------------2h5p4p2-----|
B|-------------5-----5----5---------------3--------------|
G|---------4----------------------------2----------------|
D|--2--6-----------------------------4-------------------|
A|---------------------------------5---------------------|
E|-------------------------------------------------------|

e|-----------------------------4--------------|
B|---------------------3-------5--------------|
G|---------------------2----------------------|
D|------4--4--4--4-----0----------------------|
A|------4--4--4--4-----0----------------------|
E|----0h2--2--2--0h2--------------------------|

e|-----------------------------4--------------|
B|---------------------3-------5--------------|
G|---------------------2----------------------|
D|------4--4--4--4-----0----------------------|
A|------4--4--4--4-----0----------------------|
E|----0h2--2--2--0h2--------------------------|

e|-----------------------------4--------------|
B|---------------------3-------5--------------|
G|---------------------2----------------------|
D|------4--4--4--4-----0----------------------|
A|------4--4--4--4-----0----------------------|
E|----0h2--2--2--0h2--------------------------|

e|-----------------------------4--------------|
B|---------------------3-------5--------------|
G|---------------------2----------------------|
D|------4--4--4--4-----0----------------------|
A|------4--4--4--4-----0----------------------|
E|----0h2--2--2--0h2--------------------------|


e|-----------2-2------4-4--x---4h5-5-4---x-|
B|--2-2------3-3------2-2--x---5-----5---x-|
G|--2-2------2-2------4-4--x---4-----4---x-|
D|--4-4------4-4------2-2--x-------------x-|
A|--4-4------5-5------2-2--x-------------x-|
E|--2-2------2-2-----------x-------------x-|

e|-----------2-2------4-4--x---4h5-5-4---x-|
B|--2-2------3-3------2-2--x---5-----5---x-|
G|--2-2------2-2------4-4--x---4-----4---x-|
D|--4-4------4-4------2-2--x-------------x-|
A|--4-4------5-5------2-2--x-------------x-|
E|--2-2------2-2-----------x-------------x-|


e|-----------2-2------4-4--x---4h5-5-4---x-|
B|--2-2------3-3------2-2--x---5-----5---x-|
G|--2-2------2-2------4-4--x---4-----4---x-|
D|--4-4------4-4------2-2--x-------------x-|
A|--4-4------5-5------2-2--x-------------x-|
E|--2-2------2-2-----------x-------------x-|


e|-----------2-2------4-4--x---4h5-5-4---x-|
B|--2-2------3-3------2-2--x---5-----5---x-|
G|--2-2------2-2------4-4--x---4-----4---x-|
D|--4-4------4-4------2-2--x-------------x-|
A|--4-4------5-5------2-2--x-------------x-|
E|--2-2------2-2-----------x-------------x-|


e|-----------------------------------|
B|-----------------------------------|
G|-----------------------------------|
D|-----4-/--7-/--7-/--9--------------|
A|-----4-/--5-/--4-/--7--------------|
E|-----2-/---------------------------|

e|-----------------------------------|
B|-----------------------------------|
G|-----------------------------------|
D|-----4-/--7-/---7-/---9------------|
A|-----4-/--5-/---4-/---7------------|
E|-----2-/---------------------------|

e|----------------------------------------------------------------------|
B|----------------------------------------------------------3-2---------|
G|----------------------------4-2---------------------------------------|
D|--------------4----------------------------------4--------------------|
A|----------------------------------------------------------------------|
E|--0h2-2----------2-2-------------0h2-2---------------2-2--------------|

e|-------------------------------------------------------4h5p4----------|
B|-----------------------------------------------------------------~5---|
G|---------------------------4-2----------------------------------------|
D|-------------4---------------------------------4----------------------|
A|----------------------------------------------------------------------|
E|--0h2-2---------2-2--------------0h2-2--------------------------------|

e|----------------------------------------------------------------------|
B|----------------------------------------------------------3-2---------|
G|----------------------------4-2---------------------------------------|
D|--------------4----------------------------------4--------------------|
A|----------------------------------------------------------------------|
E|--0h2-2----------2-2-------------0h2-2---------------2-2--------------|

e|-------------------------------------------------------4h5p4----------|
B|-----------------------------------------------------------------~5---|
G|---------------------------4-2----------------------------------------|
D|-------------4---------------------------------4----------------------|
A|----------------------------------------------------------------------|
E|--0h2-2---------2-2--------------0h2-2--------------------------------|

e|-----------------------------4--------------|
B|---------------------3-------5--------------|
G|---------------------2----------------------|
D|------4--4--4--4-----0----------------------|
A|------4--4--4--4-----0----------------------|
E|----0h2--2--2--0h2--------------------------|

e|-----------------------------4--------------|
B|---------------------3-------5--------------|
G|---------------------2----------------------|
D|------4--4--4--4-----0----------------------|
A|------4--4--4--4-----0----------------------|
E|----0h2--2--2--0h2--------------------------|

e|-----------------------------4--------------|
B|---------------------3-------5--------------|
G|---------------------2----------------------|
D|------4--4--4--4-----0----------------------|
A|------4--4--4--4-----0----------------------|
E|----0h2--2--2--0h2--------------------------|

e|-----------------------------4--------------|
B|---------------------3-------5--------------|
G|---------------------2----------------------|
D|------4--4--4--4-----0----------------------|
A|------4--4--4--4-----0----------------------|
E|----0h2--2--2--0h2--------------------------|


e|--------------0h9---------9----------------------------------------------|
B|--12-10-------------12----------12-10--------10--------10----------------|
G|--11-11-----------------------------------11--------11-------------------|
D|-------------------------------------------------------------------------|
A|-------------------------------------------------------------------------|
E|-------------------------------------------------------------------------|

e|--------------0h9---------9----------------------------------------------|
B|--12-10-------------12----------12-10--------10--------10----------------|
G|--11-11-----------------------------------11--------11-------------------|
D|-------------------------------------------------------------------------|
A|-------------------------------------------------------------------------|
E|-------------------------------------------------------------------------|

e|--------------0h9---------9----------------------------------------------|
B|--12-10-------------12----------12-10--------10--------10----------------|
G|--11-11-----------------------------------11--------11-------------------|
D|-------------------------------------------------------------------------|
A|-------------------------------------------------------------------------|
E|-------------------------------------------------------------------------|

e|--------------0h9---------9----------------------------------------------|
B|--12-10-------------12----------12-10--------10--------10----------------|
G|--11-11-----------------------------------11--------11-------------------|
D|-------------------------------------------------------------------------|
A|-------------------------------------------------------------------------|
E|-------------------------------------------------------------------------|

e|------------------------------------------------------------16-17--------|
B|---------------------14---------------------------------------------~17--|
G|--------13----------------16-14-13----------13---------------------------|
D|-----16----------------------------------16------------------------------|
A|--16----------16---------------------16----------16----------------------|
E|-------------------------------------------------------------------------|

e|------------------------------------------------------------------------|
B|-----------------14-----------------------------------------------------|
G|--------13------------16-14-13-----------13-----------------------------|
D|-----16-------------------------------16------------12--16--------------|
A|--16--------16---------------------16----------16-------------14--------|
E|------------------------------------------------------------------------|

e|------------------------------------------------------------16-17--------|
B|---------------------14---------------------------------------------~17--|
G|--------13----------------16-14-13----------13---------------------------|
D|-----16----------------------------------16------------------------------|
A|--16----------16---------------------16----------16----------------------|
E|-------------------------------------------------------------------------|

e|------------------------------------------------------------------------|
B|-----------------14-----------------------------------------------------|
G|--------13------------16-14-13-----------13-----------------------------|
D|-----16-------------------------------16------------12--16--------------|
A|--16--------16---------------------16----------16-------------14--------|
E|------------------------------------------------------------------------|

This part is in hybrid picking and seems also palmuted (only the A chord seems clear)

e|---------------------------------------------------|
B|---------------------------------------------------|
G|----------------------------------------2----------|
D|--4p2---2h4---4p2---2h4---4p2---2h4-----2----------|
A|----------------------------------------0----------|
E|------2-----2-----2-----2-----2--------------------|

e|-----------------------------------------------------|
B|-----------------------------------------------------|
G|-----------------------------------------------------|
D|--4p2---2h4---4p2---2h4---4p2---2h4------4-----------|
A|-----------------------------------------------------|
E|------2-----2-----2-----2-----2------2---------------|

e|---------------------------------------------------|
B|---------------------------------------------------|
G|----------------------------------------2----------|
D|--4p2---2h4---4p2---2h4---4p2---2h4-----2----------|
A|----------------------------------------0----------|
E|------2-----2-----2-----2-----2--------------------|

e|-----------------------------------------------------|
B|-----------------------------------------------------|
G|-----------------------------------------------------|
D|--4p2---2h4---4p2---2h4---4p2---2h4------4-----------|
A|-----------------------------------------------------|
E|------2-----2-----2-----2-----2------2---------------|

e|-------------------------------------------------------|
B|-------------------------------------------------------|
G|-------------------------------------------------------|
D|--7p4---4h7---9p6---6h9---11p7---7h11---14p11----11h14-|
A|------4-----------7------------9--------------12-------|
E|-------------------------------------------------------|

e|-------------------------------------------------------|
B|-------------------------------------------------------|
G|-------------------------------------------------------|
D|--7p4---4h7---9p6---6h9---11p7---7h11---14p11----11h14-|
A|------4-----------7------------9--------------12-------|
E|-------------------------------------------------------|

e|-------------------------------------------------|
B|-------------------------------------------------|
G|-------------------------------------------------|
D|--7p4---4h7---7p4---4h7---6p2---2h6---6p2---2h6--|
A|------5-----------5-----------4-----------4------|
E|-------------------------------------------------|

e|-------------------------------------------------|
B|-------------------------------------------------|
G|-------------------------------------------------|
D|--7p4---4h7--7p4---4h7--6p2----2h6--6p2---2h6----|
A|------5-----------5----------4----------4--------|
E|-------------------------------------------------|

e|-------------------------------------------------|
B|-------------------------------------------------|
G|-------------------------------------------------|
D|--6p2---2h6--6p2---------------------------------|
A|------4----------4-------------------------------|
E|-------------------------------------------------|

e|---------------------------------------------------|
B|---------------------------------------------------|
G|----------------------------------------2----------|
D|--4p2---2h4---4p2---2h4---4p2---2h4-----2----------|
A|----------------------------------------0----------|
E|------2-----2-----2-----2-----2--------------------|

e|-----------------------------------------------------|
B|-----------------------------------------------------|
G|-----------------------------------------------------|
D|--4p2---2h4---4p2---2h4---4p2---2h4------4-----------|
A|-----------------------------------------------------|
E|------2-----2-----2-----2-----2------2---------------|

************************************

| h  Hammer-on
| p  Pull-off
| ~  Vibrato
| /  Slide
| x  Dead note 

************************************

            
            
Suggest correction
Creating personal tab
Creating personal tab
You can edit any tab online and save it as your Personal.

You can edit, replace or remove any tab part or add personal notes – all changes will be seen only by you.

Personal tabs can be accessed anytime from any device, even offline.
Learn more »
comments
print report bad tab
10 comments total. Showing first comments.
0 reply
WhaTever4 188 Mar 24, 2008 06:03 PM

thank you much love for this!!!!

+2 reply
nizzer 61 Jun 24, 2008 08:39 PM

can you also put up the tuning for this song? i'm just not sure of what it's in...plz and thnx

0 reply
m.musiclover 31 Sep 24, 2008 09:05 AM

B.E.A.utiful. keep it up

guest
You may want to rate the tab now too:
select rating
Wanna post a correction for this tab? Suggest correction