Oops, an error
Loading. Please wait.

For Mom tab

version 3
version 3

Whole song

Interactive

45,102 views 48 this week
6 commentsread comments
1 2 3 4 5
x 21
add to favorites
×
Save as Personal and add changes to this tab that will be seen only by you. Learn more ›
×
You can save this tab as Personal to edit and correct it or add notes. All changes will be seen only by you. Learn more »
launch autoscroll
font size
0
reset
how to read this tab
guitar tuner
edit
Autoscroll
slow
fast
+/-
esc
set tempo
stop
Author
-------------------------------------------------------------------------------
                             FOR MOM - Buckethead
-------------------------------------------------------------------------------
Tabbed by: lospayasos
Email: whitewash@rocketmail.com

Notes:
This version is from the 'Acoustic Shards' album.
Listen to the track for timing.

You can hear the song here:
http://uk.youtube.com/watch?v=9bEiGC8mm_Q

Tuning: 1/2 step down

Figure 1 (Intro):
e|----------------0------------------------0--------------------|
B|--------------2---2--------------------1---1------------------|
G|------------4-------4----------------4-------4----------------|
D|----------2-----------2------------2-----------2--------------|
A|--------0---------------0--------0---------------0------------|
E|--------------------------------------------------------------|

e|-----------------------------------------0--------------------|
B|----------------0---1------------------2---2------------------|
G|--------------0---0------------------4-------4----------------|
D|------------3----------------------2-----------2--------------|
A|----------3----------------------0---------------0------------|
E|--------1-----------------------------------------------------|

Figure 2:
e|--------------3-----------3-----------------------------------|
B|------------0-----0-----0-----0-------------------------------|
G|----------5-----5-----5-----5---------------------------------|
D|----------------------------------0---0-----------------------|
A|--------------------------------------------------------------|
E|--------5-----------5-----------3---3-------------------------|

... repeat x6 then,

e|--------3-----------------------3-----------------------------|
B|--------5-----------------------5-----------------------------|
G|--------5-----------------------5-----------------------------|
D|--------0----------0---0--------0-----------------------------|
A|--------0-----------------------0-----------------------------|
E|--------x--------3---3----------x-----------------------------|

Figure 3:
e|------------0----------------0--------0-----------------------|
B|----------8---8---8----8---8---8----8---8---------------------|
G|--------9-------9--------9------------------------------------|
D|--------------------10-----------10---------------------------|
A|--------------------------------------------------------------|
E|--------------------------------------------------------------|

e|----------------0--------------0-----------0------------------|
B|--------------------------------------------------------------|
G|-----------7---------7----7---------7----7---7----------------|
D|--------------------------------------------------------------|
A|--------10---10---10---10---10---10---10----------------------|
E|--------------------------------------------------------------|

e|--------------------------------------------------------------|
B|--------------8-----------5---------5-------------------------|
G|----------5-------5---5-------5---5---5-----------------------|
D|--------------------------------------------------------------|
A|--------8---8---8---8---8---8---8-----------------------------|
E|--------------------------------------------------------------|

e|----------------------------------------0--------------0------|
B|--------------5-----------5-----------------------------------|
G|----------5-------5---5-------5-/--7---------7----7---------7-|
D|--------------------------------------------------------------|
A|--------8---8---8---8---8---8-/-10---10---10---10---10---10---|
E|--------------------------------------------------------------|

... repeat x2
(LAST BAR CHANGES SLIGHTLY DURING REPEAT)

Figure 4:
e|------------------------------------3--------3----------------|
B|----------1-1h0-1---------------1h0---0h1----1----------------|
G|---------------------------------------------0----------------|
D|------------------2--------------------------x----------------|
A|--------0-----------0---------0-------------------------------|
E|----0--------------------0----1---1---1-----------------------|

Figure 5:
(NOTE TIMING NOT ACCURATE IN ORDER TO CLARIFY CHORDS)
e|--------0----0-00-0-0-00--------0----0-00-0-0-00--------------|
B|--------5----5-55-5-5-55--------0----0-00-0-0-00--------------|
G|--------6----6-66-6-6-66--------2----2-22-2-2-22--------------|
D|--------6----6-66-6-6-66--------2----2-22-2-2-22--------------|
A|--------4----4-44-4-4-44--------0----0-00-0-0-00--------------|
E|--------0----0-00-0-0-00--------0----0-00-0-0-00--------------|

e|--------0----0-00-0-0-00--------0----0-00-0-0-00--------------|
B|--------0----0-00-0-0-00--------0----0-00-0-0-00--------------|
G|--------6----6-66-6-6-66--------6----6-66-6-6-66--------------|
D|--------6----6-66-6-6-66--------6----6-66-6-6-66--------------|
A|--------4----4-44-4-4-44--------4----4-44-4-4-44--------------|
E|--------0----0-00-0-0-00--------0----0-00-0-0-00--------------|
... repeat x3

Figure 6:
e|---------7--4-5-5h7--5-4--------------------------------------|
B|----------------------------7--9--7-----------9--5------------|
G|--------------------------------------8-9-11--------4---------|
D|-------------------------------------------------------6------|
A|--------------------------------------------------------------|
E|----0-----------------------7--------------------5------------|

e|----x--7-7-7--7--7--7--7-5-4--7---7---7---4-7--5-4-----4---2--|
B|----x---------------------------------------------------------|
G|----x---------------------------------------------------------|
D|----x---------------------------------------------------------|
A|----x----------------------------------------------2-2---2----|
E|----x------0------------------0-0---0-0-----------------------|

e|------0-2h4-0--------------------------0----------------------|
B|----4----------0-----------------------0----------------------|
G|------------------1----1----1----------1----------------------|
D|-------------------------------4-------3----------------------|
A|------------0---------------------2----3----------------------|
E|---------------------------------------0----------------------|

************************************

| x  Dead note
| /  Slide up
| h  Hammer-on

************************************

            
            
Suggest correction
Creating personal tab
Creating personal tab
You can edit any tab online and save it as your Personal.

You can edit, replace or remove any tab part or add personal notes – all changes will be seen only by you.

Personal tabs can be accessed anytime from any device, even offline.
Learn more »
comments
print report bad tab
6 comments total. Showing first comments.
-1 reply
jrcsgtpeppers 201 Apr 10, 2009 02:00 PM

I don't know about this.

The very beginning bars 1 and 2 are good and the first bar of figure 3 is good. The rest just doesn't sound right. But its the first try at the acoustic version.

-2 reply
toine 1,229 Aug 02, 2009 01:45 PM

bars 2 and 3 of figure 3 are wrong. the notes are correct, the rythm is wrong. will you correct it? or can i .. ;)

0 reply
floppypick 30 Aug 20, 2009 01:06 PM

Figure 2:

e|--------------3-----------3-----------------------------------|
B|------------0-----0-----0-----0-------------------------------|
G|----------5-----5-----5-----5---------------------------------|
D|----------------------------------0---0-----------------------|
A|--------0-----------0-----------------------------------------|
E|--------------------------------3---3-------------------------|

Much easier to play like this.

guest
You may want to rate the tab now too:
select rating
Wanna post a correction for this tab? Suggest correction