Oops, an error
Loading. Please wait.

For Mom tab

version 4
version 4

Whole song

Interactive

6,500 views 9 this week
2 commentsread comments
1 2 3 4 5
x 7
add to favorites
×
Save as Personal and add changes to this tab that will be seen only by you. Learn more ›
×
You can save this tab as Personal to edit and correct it or add notes. All changes will be seen only by you. Learn more »
launch autoscroll
font size
0
reset
how to read this tab
guitar tuner
edit
Autoscroll
slow
fast
+/-
esc
set tempo
stop
Buckethead
For Mom (Early Version)
Acoustic Shards
[Tune ½ step down]

This is what I got, from what I hear Buckethead playing.  
I didn’t see a really good Acoustic Shard’s version out there, so I did one myself.  
I hope you like it!  
If anyone has any corrections, please P.M. me or post it as a comment/correction.
Enjoy!


|-----0----------0--------------------0-----|----3-----3-------|---------3-|
|----2-2--------1-1---------0--1-----2-2----|------------------|-0-------0-|
|---4---4------4---4-------2--2-----4---4---|---2-2---2-2------|-2-------2-|
|--2-----2----2-----2-----3--------2-----2--|--2---2-2---2-0-0-|-2---0-0-2-|
|-0-------0--0-------0---3--------0-------0-|-0-----0----------|-0-------0-|
|-----------------------1-------------------|-------------3-3--|----3-3----|

|----0----|-----0------0------0----0------0------0---------0-------0------0----|-0--|
|--8---8--|----8-8----8-8----8----8-8----8-8----8----6------6-----6-6----8-8---|-8--|
|-9-9-9-9-|---9---9--9---9--9----7---7--7---7--7----5-5---5--5-5-5---5--7---7--|-7--|
|---------|-10-----10-----10----9------9------9----7---7-7----7-7------9-----9-|-9--|
|---------|--------------------10-----10-----10---8-----8-------8-----10-------|-10-|
|---------|--------------------------------------------------------------------|----|

|--------------------0-----0-|
|-------1-----------1-1----1-|
|------4-4---------4---4---4-|
|-----2---2-------2-----2--2-|
|----0-----0-----0-------0-0-|
|-0-----------0--------------|

|-0--0--0--0--0-|
|-6--0--0--0--0-|
|-5--4--2--4--4-|
|-5--4--2--2--4-|
|-4--2--0--0--2-|
|---------------|

|---------------------------------------4--0-------|---------------------------------------|
|-12--12--9-10-10h12-10-9-7--9-7--4-5-7-------1----|-12-12-12--12--12--12-12-10-9-12-12-12-|
|-----------------------------------------------2--|---------------------------------------|
|--------------------------------------------------|---------------------------------------|
|--------------------------------------------------|---------------------------------------|
|-0-----------------------7----------------0-------|-------0-----------------------0-0--0--|

|---------------------------------4--0------0----------------------------------------------|
|-9-10-10h12-10-9-7---9---7--4h5h7-7--0-----0--12(12\0)====================================|
|--------------------------------------1----1----------------------------------------------|
|---------------------------------------2---2----------------------------------------------|
|----------------------------------------2--2----------------------------------------------|
|-----------------7-7---7-----------------0-0----------------------------------------------|



            
            
Suggest correction
Creating personal tab
Creating personal tab
You can edit any tab online and save it as your Personal.

You can edit, replace or remove any tab part or add personal notes – all changes will be seen only by you.

Personal tabs can be accessed anytime from any device, even offline.
Learn more »
comments
print report bad tab
2 comments total.
0 reply
jinglesguitar 10 Feb 15, 2010 04:49 AM

Not completely sure on this but when he stars playing
|-0--0--0--0--0-|
|-6--0--0--0--0-|
|-5--4--2--4--4-|
|-5--4--2--2--4-|
|-4--2--0--0--2-|
|---------------|

i play this instead. sounds better imo
|-0--0--0--0--0-|
|-0--0--0--0--0-|
|-6--4--2--4--4-|
|-6--4--2--2--4-|
|-4--2--0--0--2-|
|---------------|

0 reply
biggydoggsjj 16 Jul 17, 2010 09:20 AM

this is a great tab but this is NOT novice!!!

guest
You may want to rate the tab now too:
select rating
Wanna post a correction for this tab? Suggest correction