Oops, an error
Loading. Please wait.

Lebron tab

version 1
version 1

Whole song

Interactive

16,824 views 12 this week
8 commentsread comments
1 2 3 4 5
x 6
add to favorites
×
Save as Personal and add changes to this tab that will be seen only by you. Learn more ›
×
You can save this tab as Personal to edit and correct it or add notes. All changes will be seen only by you. Learn more »
launch autoscroll
font size
0
reset
how to read this tab
guitar tuner
edit
Autoscroll
slow
fast
+/-
esc
set tempo
stop
                    "Slaughter House on the Prairie"
                              "Buckethead"
                                "LeBron"

                         Tabbed By Daniel Strain
                     Email danielstrain57@yahoo.com

 The intro/outro is probably a bit messed up I can't really hear that well
 because of the rhythm guitar but the rest of this tab is gold hope you
 enjoy! Comments/rating would be appreciated thanks.

Lead Guitar
|--14--12--------------------------------------------------------|
|--------15-14-14-15--------------14-15-14--------12-------------|
|--------------------14-14-11-14------------11-14----14-12-11----|
|----------------------------------------------------------------|
|----------------------------------------------------------------|
|----------------------------------------------------------------|

|--14--12--------------------------------------------------------|
|--------15-14-14-15-14-12--------12---12s14-14-15-17--15-14-15--|
|---------------------------11h14--------------------------------|
|----------------------------------------------------------------|
|----------------------------------------------------------------|
|----------------------------------------------------------------|

|----------------------------------------------------------15-14-|
|--------------------------------------15-15-14-14-12--12--------|
|-14s11-11h14----------------------11----------------------------|
|-------------12h14-12-------12-14-------------------------------|
|----------------------14--14------------------------------------|
|----------------------------------------------------------------|

|-14-15-----|
|-------15--|
|-----------|
|-----------|
|-----------|
|-----------|

|--14--12---------------------------------------|
|--------15-14-14-15----------------15b---------|
|--------------------14-12-11-11-12------16-----|
|-----------------------------------------------|
|-----------------------------------------------|
|-----------------------------------------------|

Use Kill Switch
|------------------------------|
|------------------------------|
|------------------------------|X2
|--------------------------7---|
|----------------------5-5-----|
|-7-7-7-7-7-7-7-7-7-7----------|

|-----------14---------------------------------14-----------------------|
|-19-15-17-----14-14b-----------------19-15-17----14-14b----------------|
|-----------------------16-16-14-16-----------------------16-14-14-16---|
|-----------------------------------------------------------------------|
|-----------------------------------------------------------------------|
|-----------------------------------------------------------------------|

 55 Seconds (vibrato on each note)
|------------------|-----------------|-------------------|-----------------|
|------------------|-----------------|-------------------|-----------------|
|--4---6---7---9---|-11--12--14--16--|-18--19--21--19-18-|-18--------------|
|------------------|-----------------|-------------------|-----19----------|
|------------------|-----------------|-------------------|---------21------|
|------------------|-----------------|-------------------|-----------------|

1:09
*|---------------------------------------------------------------|
*|---------------------------------------------------------------|
*|---------------------------------------------------------------|
*|--------------------------5-----------------------------4------|
*|--9p5---9p5---9p5---9h5--------7p4---7p4----7p4---7p4----------|
*|------7-----7-----7-----7----------5-----5------5-----5--------|

|------------------------------------------------------|*
|------------------------------------------------------|*
|------------------------------------------------------|*X2
|--------------------------5---------------------------|*
|--9p5---9p5---9p5---9h5--------7p4---7p4--5p4---4h5---|*
|------7-----7-----7-----7----------5------3---3-------|*

1:23
*|---------------------------|--------------------------|
*|---------------------------|--------------------------|
*|---------------------------|--------------------------|
*|---------------------------|--------------------------|
*|---8--8--8--8--7--8--7--8--|--8--8--8--8--7--8--7--8--|
*|--10-10-10-10--8--8--8--8--|-10-10-10-10--8--8--8--8--|
    P.M.-|   P.M.-------------------|   P.M.----------|

|---------------------------|-------------------------|*
|---------------------------|-------------------------|*
|---------------------------|-------------------------|*X2
|---------------------------|-------------------------|*
|---8--8--8--8--7--8--7--8--|-7--8--7--8--5--7--5--7--|*
|--10-10-10-10--8--8--8--8--|-5--5--5--5--3--3--3--3--|*
   P.M.-|   P.M.------------------------------------|

*|--6-------6---8--------------------------------------|
*|--6-------6---8--------------------------------------|
*|--7-------7---9--------------------------------------|
*|--8-------8--10---12---------------------------------|
*|--8-------8--10---12----------8---------------8------|
*|--6-------6---8---10----8h10----10----8h10-------10--|

|--6--------6---8------------------------------------------|*
|--6--------6---8------------------------------------------|*
|--7--------7---9------------------------------------------|*X2
|--8--------8--10-----12----10h12p10-----------8-----------|*
|--8--------8--10-----12-------------12p10h12-----12-------|*
|--6--------6---8-----10-----------------------------------|*


|----------------------------------------|
|----------------------------------------|
|----------------------------------------|
|--------------------5555555588887777----|
|---5555555588887777---------------------|
|----------------------------------------|

 1.52  This is my favorite part : )
|-----------3-2------------3-2------------2-3-------------5-5----|
|-----------3-3------------3-3------------3-3-------------3-3----|
|--4--4-----0-0-----4--4---0-0-----4--4---0-0------4--4---0-0----|X2
|--4--4-----4-4-----4--4---4-4-----4--4---4-4------4--4---4-4----|
|--2--2-------------2--2-----------2--2------------2--2---5-5----|
|----------------------------------------------------------------|

Use Kill switch
|------------------------------|
|------------------------------|
|------------------------------|X2
|--------------------------7---|
|----------------------5-5-----|
|-7-7-7-7-7-7-7-7-7-7----------|


|------------------------------|
|------------------------------|
|-44444444--7-7----------------|X6
|-44444444--7-7----------------|
|-22222222--5-5----------------|
|------------------------------|


|--------------------------------------------------3-3-3-2-2-2-----|
|-----------------3-3-3-2-2-2--------------3-3-5-5-------------3-3-|
|---------2-2-4-4-------------2-2----------------------------------|
|-----4-4------------------------------4-4-------------------------|
|-2-2------------------------------2-2-----------------------------|
|------------------------------------------------------------------|


|--------------------------|
|--------------------------|
|--------------------------|X4
|----4-0-------------------|
|--2-----0---0-5-0---------|
|----------3---------------|

|-----------3-2------------3-2------------2-3-------------5-5----|
|-----------3-3------------3-3------------3-3-------------3-3----|
|--4--4-----0-0-----4--4---0-0-----4--4---0-0------4--4---0-0----|X2
|--4--4-----4-4-----4--4---4-4-----4--4---4-4------4--4---4-4----|
|--2--2-------------2--2-----------2--2------------2--2---5-5----|
|----------------------------------------------------------------|

Then it ends with the opening riff

Rhythm Guitar this is what goes behind a lot of the song I'm sorry
I just couldn't put them over lapped so you know were it played it
really wouldn't be to hard to figure out : )
|----------------------------------------------------------------|
|----------------------------------------------------------------|
|----------------------------------------------------------------|
|----------------------------------------------------------------|
|--9-------------12---------------7---------------5--------------|
|--7-------------10---------------5---------------3--------------|

|----------------------------------------------------------------|
|----------------------------------------------------------------|
|----------------------------------------------------------------|
|----------------------------------------------------------------|
|---5--4--5--7---------------------------------------------------|
|---3--2--3--5---------------------------------------------------|

|----------------------------------------------------------------|
|----------------------------------------------------------------|
|----------------------------------------------------------------|
|----------------------------------6-7-9-7-----------------------|
|--9----7----4-5-7-5-4---9----7----4-5-7-5-----------------------|
|--7----5----2-3-5-3-2---7----5----------------------------------|

            
            
Suggest correction
Creating personal tab
Creating personal tab
You can edit any tab online and save it as your Personal.

You can edit, replace or remove any tab part or add personal notes – all changes will be seen only by you.

Personal tabs can be accessed anytime from any device, even offline.
Learn more »
comments
print report bad tab
8 comments total. Showing first comments.
+2 reply
Giant_Robot 81 Mar 02, 2009 09:10 AM

dude the tab is bomb proof

theres nothing wrong with the intro or outro but there is two 14 at the start

this is so good been waiting ages for someone to tab this!!!!

+1 reply
dani_filth_44 16 Mar 07, 2009 01:38 AM

this is a awsome tab, good work , i cant really see any mistake at all =]

0 reply
SPRYTE 10 Mar 29, 2009 06:28 PM

this is a great tab exept i have question about
e=--------------------15-14-14-15------------ i see what you were
b=15-15-14-14-12--12--------------15--------- trying to do....
g=-------------------------------------------
d=------------------------------------------- but it is not correct..
a=-------------------------------------------

im not thaT GOOD BY EAR BUT IM PRETTY SURE that the 1st note is a bend on the 15....i think your good enough to fix it....")

guest
You may want to rate the tab now too:
select rating
Wanna post a correction for this tab? Suggest correction