Oops, an error
Loading. Please wait.

Low Rolling Hills tab

619 views 1 this week
3 commentsread comments
1 2 3 4 5
x 3
add to favorites
×
Save as Personal and add changes to this tab that will be seen only by you. Learn more ›
×
You can save this tab as Personal to edit and correct it or add notes. All changes will be seen only by you. Learn more »
launch autoscroll
font size
0
reset
how to read this tab
guitar tuner
edit
Autoscroll
slow
fast
+/-
esc
set tempo
stop
Author
Difficulty
Buckethead - Low Rolling Hills (updated version)

made it according to this video:

https://www.youtube.com/watch?v=wGIE97rfxTs&list=UUxqhituoRFtsqulTmztJB4w

give this man a thumbs up, he deserves it :)

symbols:

        p - pull off
        h - hammer-on
        / - slide in
        \ - slide out
        x - mute


e|------0-------0-------0----11-12p11-----------------------------------------------------|
b|----0-------0-------0---------------12--------------------------------------------------|
g|--9------11------13--------------------13-----------------------------------------------|     x4
D|----------------------------------------------------------------------------------------|
A|----------------------------------------------------------------------------------------|
E|----------------------------------------------------------------------------------------|

e|-----------------------------------------7----------------------------------------------|
b|-------------------5p4-------------------7-----4-7-5------------------------------------|
g|--------4--6-----------6p4----------4----8---4-------6----------------------------------|     x3
D|-----6----------6-----------6p4----------9-------------7--------------------------------|
A|--4----------4--------------------7---7--9----------------------------------------------|
E|--------------------------------4--------7----------------------------------------------|

guitar 1
e|-----------------------------------------7----------------------------------------------|
b|--------5-4--------5p4-------------------7-----4-7-5------------------------------------|
g|-----------------------6p4----------4----8---4-------6----------------------------------|
D|-----6----------6-----------6p4----------9-------------7--------------------------------|
A|--4----------4--------------------7---7--9----------------------------------------------|
E|--------------------------------4--------7----------------------------------------------|

guitar 2
e|-----------------------------------------7----------------------------------------------|
b|-------------------5p4-------------------7-----4-7-5------------------------------------|
g|--------4--6-----------6p4----------4----8---4-------6----------------------------------|
D|-----6----------6-----------6p4----------9-------------7--------------------------------|
A|--4----------4--------------------7---7--9----------------------------------------------|
E|--------------------------------4--------7----------------------------------------------|

now back to one guitar again

e|--/6\4-x-4-4--/6\4-4-4--4-4-4----/6\4-x-4-4--4------------------------------------------|
b|--/7\5-x-5-5--/7\5-5-5--5-5-5----/7\5-x-5-5--4--5-5-5-5---------------------------------|
g|--/8\6-x-6-6--/8\6-6-6--6-6-6----/8\6-x-6-6--4--6-6-6-6---------------------------------|     x2
D|--/8\6-x-6-6--/8\6-6-6--6-6-6----/8\6-x-6-6--6--7-7-7-7---------------------------------|
A|--/6\4-x-4-4--/6\4-4-4--4-4-4----/6\4-x-4-4--4------------------------------------------|
E|----------------------------------------------------------------------------------------|

e|----------------------------------------------------------------------------------------|
b|--4-4-4-4-4-4-4-4\2-2-2-2-2-2-2-2--4-4-4-4-4-4-4-4--5-5-5-5-----------------------------|
g|--4-4-4-4-4-4-4-4\2-2-2-2-2-2-2-2--4-4-4-4-4-4-4-4--6-6-6-6-----------------------------|     x2
D|----------------------------------------------------7-7-7-7-----------------------------|
A|----------------------------------------------------------------------------------------|
E|----------------------------------------------------------------------------------------|

e|----------------------------------------------------------------------------------------|
b|----------------------------------------------------------------------------------------|
g|--6-6-6--x-6-6-x--4h6-6--x-6-6-x----2-2--x-2-2-x----2-2--x-2-2--------------------------|     x2
D|--6p4h6--x-6-6-x--6p4h6--x-6-6-x--2p1h2--x-2-2-x--2p1h2--x-2-2--------------------------|
A|--4-4-4--x-4-4-x--4-4-4--x-4-6-x--0-0-0--x-0-0-x--0-0-0--x-0-2--------------------------|
E|----------------------------------------------------------------------------------------|

e|--------------------------0-x--------0-x------------------------------------------------|
b|--------------------------2-x--4-5---2-x--4-5-------------------------------------------|
g|--------------(4)/6--4\2--2-x--4-6---2-x--4-6-------------------------------------------|     x2
D|--------------------------2-x--6-7---2-x--6-7-------------------------------------------|
A|--4--------2--------------0-x--------0-x------------------------------------------------|
E|-----2--4-------------------------------------------------------------------------------|

e|-----------------------------------------7----------------------------------------------|
b|-------------------5p4-------------------7-----4-7-5------------------------------------|
g|--------4--6-----------6p4----------4----8---4-------6----------------------------------|     x3
D|-----6----------6-----------6p4----------9-------------7--------------------------------|
A|--4----------4--------------------7---7--9----------------------------------------------|
E|--------------------------------4--------7----------------------------------------------|

guitar 1
e|-----------------------------------------7----------------------------------------------|
b|--------5-4--------5p4-------------------7-----4-7-5------------------------------------|
g|-----------------------6p4----------4----8---4-------6----------------------------------|
D|-----6----------6-----------6p4----------9-------------7--------------------------------|
A|--4----------4--------------------7---7--9----------------------------------------------|
E|--------------------------------4--------7----------------------------------------------|

guitar 2
e|-----------------------------------------7----------------------------------------------|
b|-------------------5p4-------------------7-----4-7-5------------------------------------|
g|--------4--6-----------6p4----------4----8---4-------6----------------------------------|
D|-----6----------6-----------6p4----------9-------------7--------------------------------|
A|--4----------4--------------------7---7--9----------------------------------------------|
E|--------------------------------4--------7----------------------------------------------|

now back to one guitar again

e|--9-----------------11-12-------------------14-12-------------------11------------------|
b|----9------------12-------12-------------14-------12-------------12------9--9--9-7--9---|
g|------9-------11-------------13-------14-------------13-------11---------9--9--9-8--9---|
D|--------11-13-------------------14-16-------------------14-13-----------11-11-11-9-11---|
A|----------------------------------------------------------------------------------------|
E|----------------------------------------------------------------------------------------|

e|--9-----------------11-12-------------------14-12-------------------11--------------------|
b|----9------------12-------12-------------14-------12-------------12-----7-7-7--9---4-4-4-6|
g|------9-------11-------------13-------14-------------13-------11--------8-8-8--9---4-4-4-6|
D|--------11-13-------------------14-16-------------------14-13-----------9-9-9-11---2-2-2-4|
A|------------------------------------------------------------------------------------------|
E|------------------------------------------------------------------------------------------|

e|----------------------------------------------------------------------------------------|
b|--5-x-5-5--4-x-4-4--5-4-4--5-x-5-5--4-x-4-4--5-4-4--------------------------------------|
g|--6-x-6-6--4-x-4-4--6-4-4--6-x-6-6--4-x-4-4--6-4-4--9-----------------------------------|
D|--7-x-7-7--6-x-6-6--7-6-6--7-x-7-7--6-x-6-6--7-6-6--9-----------------------------------|
A|----------------------------------------------------7-----------------------------------|
E|----------------------------------------------------------------------------------------|

e|----------------------------------------------------------------------------------------|
b|----------------------------------------------------------------------------------------|
g|--7-9---7-9---7-9---7-9---7-9---7-9---7-9-----------------------------------------------|
D|--7-9---7-9---7-9---7-9---7-9---7-9---7-9-----------------------------------------------|
A|--5-7---5-7---5-7---5-7---5-7---5-7---5-7-----------------------------------------------|
E|----------------------------------------------------------------------------------------|

e|----------------------------------------------------------------------------------------|
b|----------------------------------------------------------------------------------------|
g|----4-5------------------------------4-5------------------------------------------------|     x2
D|--2-4-5----------------------------2-4-5------------------------------------------------|
A|--2-2-3----------0-2-3-5-3-2-------2-2-3----------0-2-3-5-3-2---------------------------|
E|--0------0-2-3-5-------------5-3-2-0------0-2-3-5-------------5-3-2---------------------|

e|----------------------------------------------------------------------------------------|
b|----------------------------------------------------------------------------------------|
g|----------------------------------------------------------------------------------------|     x2
D|----------------------------------------------------------------------------------------|
A|--7---7-7---7-----10---10-10---10-----12---12-12---12-----15---15-15---14---------------|
E|----0-----0---0------0-------0----0------0-------0----0------0-------0----0-------------|

e|----------------------------------------------------------------------------------------|
b|----------------------------------------------------------------------------------------|
g|----------------------------------------------------------------------------------------|     x2
D|----------------------------------------------------------------------------------------|
A|--7---7-7---7-------------------------------------3---3-3---2---------------------------|
E|----0-----0---0---3-0-3-3-0-3-0---5-0-5-5-0-5-0-----0-----0---0-------------------------|

e|----------------------------------------------------------------------------------------|
b|----------------------------------------------------------------------------------------|
g|----------------------------------------------------------------------------------------|     x4
D|--2-2222222--2-2222222------------------------------------------------------------------|
A|--2-2222222--2-2222222------------------------------------------------------------------|
E|--0-0000000--0-0000000---3-2-0-5-3-2-7-5-3-8-7-5-10-8-7--10-8-7-8-7-5-7-5-3-5-3-2-3-2-0-|

e|--7-7-7---7-7-7--7-7-7-7|-7-7-7---7-7-7--7-7-7|-7-7-7---7-7-7--7-7-7-7|-7-7-7---7-7-7--7-7-7-7|
b|--7-8-10-10-8-7--7-8-7-8|-7-8-10-10-8-7--7-8-8|-7-8-10-10-8-7--7-8-7-8|-7-8-10-10-8-7--7-8-7-8|
g|--7-7-7---7-7-7--7-7-7-9|-7-7-7---7-7-7--7-7-9|-7-7-7---7-7-7--7-7-7-9|-7-7-7---7-7-7--7-7-7-9|
D|--9-9-9---9-9-9--9-9-7-9|-9-9-9---9-9-9--9-9-9|-9-9-9---9-9-9--9-9-7-9|-9-9-9---9-9-9--9-9-7-9|
A|--7-7-7---7-7-7--7-7-7-7|-7-7-7---7-7-7--7-7-7|-7-7-7---7-7-7--7-7-7-7|-7-7-7---7-7-7--7-7-7-7| 
E|------------------------|---------------------|-----------------------|-----------------------|

e|--7-7777777--7-7777777------------------------------------------------------------------|
b|--8-8888888--8-8888888------------------------------------------------------------------|
g|--9-9999999--9-9999999------------------------------------------------------------------|     x3
D|--9-9999999--9-9999999--8/9-7/8-6/7-7-6-5-----------------------------------------------|
A|--7-7777777--7-7777777--8/9-7/8-6/7-7-6-5-----------------------------------------------|
E|------------------------6/7-5/6-4/5-5-4-3-----------------------------------------------|

e|----------------------------------------------------------------------------------------|
b|----------------------------------------------------------------------------------------|
g|----------------------------------------------------------------------------------------|     x4
D|--4-4444444--4-4444444--/7777--/9999--/10101010--\9999----------------------------------|
A|--4-4444444--4-4444444--/7777--/9999--/10101010--\9999----------------------------------|
E|--2-2222222--2-2222222--/5555--/7777--/8-8-8-8---\7777----------------------------------|

e|----------------------------------------------------------------------------------------|
b|----------------------------------------------------------------------------------------|
g|-------------0-----0-----0--------------------------------------------------------------|     x5
D|-----------4-----2-----0----------------------------------------------------------------|
A|--7-9-10-5-----3-----2------------------------------------------------------------------|
E|---------------------------3-2----------------------------------------------------------|

e|----------------------------------------------------------------------------------------|
b|----------------------------------------------------------------------------------------|
g|-------------0-----0-----0----------------------------5-4-------------------------------|
D|-----------4-----2-----0---5-4-2-2--5-4-2-2--5-4-2-2--5-4-2-2--5-4-2-2--5-4-2-2--5-4-2-2|
A|--7-9-10-5-----3-----2-----5-4-2-2--5-4-2-2--5-4-2-2--3-2-2-2--5-4-2-2--5-4-2-2--5-4-2-2|
E|---------------------------3-2-0-0--3-2-0-0--3-2-0-0------0-0--3-2-0-0--3-2-0-0--3-2-0-0|

e|----------------------------------------------------------------------------------------|
b|----------------------------------------------------------------------------------------|
g|--5-7-4-4--4-4-4-4--4-4-5-5--5-7-5-5--5-7-7-7--7-12-9-9--7-12-9-9--7-12-9-9--7-12-9-9-9-|
D|--5-7-4-4--4-4-4-4--4-4-5-5--5-7-5-5--5-7-7-7--7-12-9-9--7-12-9-9--7-12-9-9--7-12-9-9-9-|
A|--3-5-2-2--0-2-2-2--0-2-3-3--3-5-3-3--3-5-5-5--5-10-7-7--5-10-7-7--5-10-7-7--5-10-7-7-7-|
E|----------------------------------------------------------------------------------------|

e|----------------------------------------------------------------------------------------|
b|----7-8-7-8-/10-8-7-8---------7-8-7-8-/10-8-7-------8----0--7---------------------------|
g|----7-9-7-9-/11-9-7-9---------7-8-7-8-/10-8-7-----9-------------------------------------|     x3
D|------------------------7----------------------10------9--------------------------------|
A|----------------------------------------------------------------------------------------|
E|--0-------------------------0-----------------------------------------------------------|

e|----------------------------------------------------------------------------------------|
b|----------------------------------------------------------------------------------------|
g|----------------------------------------------------------------------------------------|     x3
D|----------------------------------------------------------------------------------------|
A|--4----4---4----2-0-2-0-/7---4----4---4----2-0-2-0-/7\6---------------------------------|
E|-----4---4---4------------------4---4---4-----------------------------------------------|

e|--9-----------------11-12-------------------14-12-------------------11------------------|
b|----9------------12-------12-------------14-------12-------------12------9--9--9-7--9---|
g|------9-------11-------------13-------14-------------13-------11---------9--9--9-8--9---|
D|--------11-13-------------------14-16-------------------14-13-----------11-11-11-9-11---|
A|----------------------------------------------------------------------------------------|
E|----------------------------------------------------------------------------------------|

e|--9-----------------11-12-------------------14-12-------------------11--------------------|
b|----9------------12-------12-------------14-------12-------------12-----7-7-7--9---4-4-4-6|
g|------9-------11-------------13-------14-------------13-------11--------8-8-8--9---4-4-4-6|
D|--------11-13-------------------14-16-------------------14-13-----------9-9-9-11---2-2-2-4|
A|------------------------------------------------------------------------------------------|
E|------------------------------------------------------------------------------------------|

            
            
Suggest correction
Creating personal tab
Creating personal tab
You can edit any tab online and save it as your Personal.

You can edit, replace or remove any tab part or add personal notes – all changes will be seen only by you.

Personal tabs can be accessed anytime from any device, even offline.
Learn more »
Give kudos to tab author, rate the tab!
1 2 3 4 5
comments
print report bad tab
3 comments total.
0 reply
dbelanger 10 Oct 05, 2014 09:35 PM, edited on October 6 2014, 01:36 am

whoops!

+1 reply
dbelanger 10 Oct 05, 2014 09:39 PM, edited on October 6 2014, 01:44 am

I could be wrong...but for the first fast sequence, I'm hearing this:

e|------------------------------------------|
b|------------------------------------------|
g|-----4-5-5--------------------------------|
D|-2-2-4-5-5--------------------------------|
A|-2-2-2-3-3--------0-2-0-2-3-2-0-------------|
E|-0-0-------0-2-3-------------0-3-2-3-2-0--|

0 reply
dbelanger 10 Oct 05, 2014 09:47 PM

Without that 0 on the low E right before the 3***

guest
You may want to rate the tab now too:
select rating
Wanna post a correction for this tab? Suggest correction