Oops, an error
Loading. Please wait.

Machete tab

version 2
version 2

Whole song

7,003 views 6 this week
4 commentsread comments
1 2 3 4 5
x 3
add to favorites
×
Save as Personal and add changes to this tab that will be seen only by you. Learn more ›
×
You can save this tab as Personal to edit and correct it or add notes. All changes will be seen only by you. Learn more »
launch autoscroll
font size
0
reset
how to read this tab
guitar tuner
edit
Autoscroll
slow
fast
+/-
esc
set tempo
stop
Author
Difficulty
-------------------------------------------------------------------------------
                             MACHETE - Buckethead
-------------------------------------------------------------------------------
Tabbed by: Otakugeek
Email: otakugeek@hotmail.com

Tuning: Standard


it ain't perfect, but its pretty close by my ear.

e|-------------------------------------|
B|------------0------------------------|
G|---------5--------------5----2-------|
D|------7--------------3-------2-------|
A|---0-------------------------0-------|
E|-------------------------------------|

1st Solo

e|---------------------------7---7/8p7---------------------------------------|
B|--5~~~~~~~h6-------------5---5-------8-8-----------------------------------|
G|--------------5--------------------------------7b-7b-p5--7-5---------5-----|
D|--------------------------------------------------------7----7p5---5-------|
A|-----------------------------------------------------------------7---------|
E|---------------------------------------------------------------------------|

e|---5-5----5h7/8-10b---------8--7-8------------------5-7--7/8---------------|
B|-8---------------------------------8-8\5--5--6--8-8----------8-----\5-6----|
G|------------------------------------------------------------------------5--|
D|---------------------------------------------------------------------------|
A|---------------------------------------------------------------------------|
E|---------------------------------------------------------------------------|

2nd Solo

e|--------8-------------------------------------------------------------|
B|----------8~~--8-8-6~~~--6h8h6--5--6----------------------------------|
G|--5~~~-------------------------------5---------5~~~-------------------|
D|-----------------------------------------------------7----------------|
A|-------------------------------------------------------7--------------|
E|----------------------------------------------------------------------|

e|--5--7-8--------------------------------------------------------------|
B|---------8--5---5-5-6-------------------8-----------------------------|
G|----------------------5---5h7---------5-------------------------------|
D|------------------------------5---5-7---------------------------------|
A|----------------------------------------------------------------------|
E|----------------------------------------------------------------------|

e|-------15----13-12---13----------------------------------------------------|
B|----13------------------13--12-----13----------------------13p12-----------|
G|-14-----------------------------------12--------------12---------14p12-----|
D|---------------------------------------------14-12-14----------------------|
A|---------------------------------------------------------------------------|
E|---------------------------------------------------------------------------|

e|---------------------------------------------------------------------------|
B|-15~~~----13--12---13-13--12-----------------------------------------------|
G|------------------------------14-14----------------------------------------|
D|-------------------------------------14p12---------------------------------|
A|----------------------------------------------------15-17-------15---------|
E|----------------------------------------------15-17-------15-17------------|
                                                 .  .  .  .  .  .  .

e|---------------------------------------------------------------------------|
B|------------------------17-----17-17--17-------17--------------------------|
G|--------------14-16b(17)-----------------14h16----14-----------------------|
D|--------14-17------------------------------------------17-14-14h15-14------|
A|--15h17--------------------------------------------------------------------|
E|---------------------------------------------------------------------------|

e|---------------------------------------------------------------------------|
B|-------------------------------------------------------------10-13-10------|
G|------------------------------------/9--12p10h12----10-12------------------|
D|-12b(14)r-10-12-10---------10-12-10----------------------------------------|
A|-------------------10-12---------------------------------------------------|
E|---------------------------------------------------------------------------|

e|---------------------------------------------------------------------------|
B|-13/15--15/17--17p13--13\12---12--13------------------8---5----------------|
G|-------------------------------------12--------7p5--7-----5----------------|
D|---------------------------------------------------------------------------|
A|---------------------------------------------------------------------------|
E|---------------------------------------------------------------------------|

e|-----------------------------------------------------------|
B|-----------------------------------------------------------|
G|--7p5---5---------------------5-7---8p5--------------------|
D|------7----7p5------------5-7------------------------------|
A|--------------7p5-----5-7----------------------------------|
E|-----------------------------------------------------------|
                        . . . . . .

e|---------------------------------------------------------------------------|
B|----------------------------------12h13p12p10----12h13p12p10---------------|
G|--5h7p5h7p5h8p5--7b(8)-5---------------------------------------------------|
D|---------------------------------------------------------------------------|
A|---------------------------------------------------------------------------|
E|---------------------------------------------------------------------------|

e|-------------------------------------15-15---------------------------------|
B|--12h13p12p10----12h13p12p10---12h13-------------10-10-12h13p12p10---------|
G|---------------------------------------------------------------------------|
D|---------------------------------------------------------------------------|
A|---------------------------------------------------------------------------|
E|---------------------------------------------------------------------------|

e|-----------------------10-10b(12)~~~~~~~----------15--------15-15b(17)--15b(17)--|
B|-----------------------------------------------13--------13----------------------|
G|--12----10h12p10h12-------------------------14--------14-------------------------|
D|----12---------------------------------------------------------------------------|
A|---------------------------------------------------------------------------------|
E|---------------------------------------------------------------------------------|

e|-------15-------15b(17)-(17)-(17)-(17)-(17)-(17)-(17)-(17)-(17)-(17)-(17)---15-13-12-13---|
B|----13-------13-------------------------------------------------------------------------13|
G|-14-------14------------------------------------------------------------------------------|
D|------------------------------------------------------------------------------------------|
A|------------------------------------------------------------------------------------------|
E|------------------------------------------------------------------------------------------|

e|-----19b(21)-19b(21)r--15---------15b(17)-15b(17)r--13-12--13h15-----------|
B|--17-------------------------------------------------------------13--------|
G|--------------------------17-----------------------------------------------|
D|---------------------------------------------------------------------------|
A|---------------------------------------------------------------------------|
E|---------------------------------------------------------------------------|

e|-----17--19-19b(21)-----15-15---15b(17)----15--15b(17)------15b(17)-15-13--|
B|--17----------------------------------------------------17-----------------|
G|---------------------------------------------------------------------------|
D|---------------------------------------------------------------------------|
A|---------------------------------------------------------------------------|
E|---------------------------------------------------------------------------|

e|--13h15p13--12-13---------------17-19-19b(21)-(21)-(21)r---15--------------|
B|------------------13------13-17--------------------------------------------|
G|-----------------------14---------------------------------------17---------|
D|---------------------------------------------------------------------------|
A|---------------------------------------------------------------------------|
E|---------------------------------------------------------------------------|

e|-----15-15b(17)---12---15---------------------------------------------15-15-|
B|--------------------------15b(16)rb(16)r--13------13-12--12-----13----------|
G|--14-----------------------------------------14-------------12-----14-------|
D|----------------------------------------------------------------------------|
A|----------------------------------------------------------------------------|
E|----------------------------------------------------------------------------|

e|----------------15-------------15-----------------------15-----------------|
B|-15b(16)-13--------13b(14)--------15b(16)r-13----13--------13b(14)---------|
G|------------14-------------14-----------------14----14-------------14------|
D|---------------------------------------------------------------------------|
A|---------------------------------------------------------------------------|
E|---------------------------------------------------------------------------|

e|-----19b(21)--19b(21)--19b(21)r---15---------------15-17--15b(17)-(17)-(17)-(17)-(17)-(17)-(17)|
B|-17-----------------------------------17---15b(17)---------------------------------------------|
G|-----------------------------------------------------------------------------------------------|
D|-----------------------------------------------------------------------------------------------|
A|-----------------------------------------------------------------------------------------------|
E|-----------------------------------------------------------------------------------------------|

e|--15b(17)r--13-13--15-13--12-13----------------19b(21)-19b(21)r--15--------------------|
B|--------------------------------13-------13-17----------------------15b(17)--15b(17)r--|
G|--------------------------------------14-----------------------------------------------|
D|---------------------------------------------------------------------------------------|
A|---------------------------------------------------------------------------------------|
E|---------------------------------------------------------------------------------------|

e|------------------------------------------8-10b(12)-(12)-(12)-(12)-(12)r--10--|
B|----------------------8-8-8--10p8---8--10-------------------------------------|
G|--17p14h17b(19)-------------------9-------------------------------------------|
D|------------------------------------------------------------------------------|
A|------------------------------------------------------------------------------|
E|------------------------------------------------------------------------------|

e|--8-7--8-8-7----------------10--10-10-10-10-10-10b(12)-10-10b(12)-(12)-(12)-(12)r----8--7-8--|
B|-------------10--10-8-----8------------------------------------------------------------------|
G|----------------------9----------------------------------------------------------------------|
D|---------------------------------------------------------------------------------------------|
A|---------------------------------------------------------------------------------------------|
E|---------------------------------------------------------------------------------------------|

e|--14b(16)-(16)-(16)---13-12--13------13-----13-----------------------------|
B|--------------------------------13------12---------------------------------|
G|-----------------------------------------------12---12-14------------------|
D|---------------------------------------------------------------------------|
A|---------------------------------------------------------------------------|
E|---------------------------------------------------------------------------|

e|------------------------------------------------------|
B|--13--13p12-------13p12-------13p12-------------------|
G|-----------14p12-------14p12-------14p12h14-----------|
D|------------------------------------------------------|
A|------------------------------------------------------|
E|------------------------------------------------------|

e|---------------------------------------------------------------------------|
B|---(couldn't make out-----15b(17)--13p12h13p12h13h15--------------15-------|
G|-----the fast part)----------------------------------12--------14----------|
D|------------------------------------------------------------14-------------|
A|---------------------------------------------------------------------------|
E|---------------------------------------------------------------------------|

e|---------------------------12h17----15p13p12-------------------------------|
B|--13h12p13--------------13-------------------------------------------------|
G|---------------------14----------------------------------------------------|
D|------------------14-------------------------------------------------------|
A|---------------12----------------------------------------------------------|
E|---------------------------------------------------------------------------|


| b  bend
| r  release bend
| () bend to
| .  palm mute
| /  slide up
| \  slide down
| h  hammer-on
| p  pull-off
| ~  vibrato
| +  harmonic
| x  Mute note
===============================================================================

            
            
Suggest correction
Creating personal tab
Creating personal tab
You can edit any tab online and save it as your Personal.

You can edit, replace or remove any tab part or add personal notes – all changes will be seen only by you.

Personal tabs can be accessed anytime from any device, even offline.
Learn more »
Give kudos to tab author, rate the tab!
1 2 3 4 5
comments
print report bad tab
4 comments total. Showing first comments.
0 reply
toine 1,229 Jul 28, 2008 08:57 AM

love it man! thanks a lot

0 reply
tgrillo 20 Sep 10, 2008 08:27 PM

great tab, 99% accurate

0 reply
WhaTever4 188 Oct 03, 2008 08:46 PM

G|--------7b7bp5--7-5---------5-------|
D|-----------------7----7p5---5-------|
A|--------------------------7---------|
E|------------------------------------|

Can some tell me what he really does here it is wrong! I'm sorry it's a good tab but a lot of this tab is wrong!

guest
You may want to rate the tab now too:
select rating
Wanna post a correction for this tab? Suggest correction