Oops, an error
Loading. Please wait.

Nottingham Lace tab

version 2
version 2

Whole song

Interactive

46,292 views 54 this week
14 commentsread comments
1 2 3 4 5
x 21
add to favorites
×
Save as Personal and add changes to this tab that will be seen only by you. Learn more ›
×
You can save this tab as Personal to edit and correct it or add notes. All changes will be seen only by you. Learn more »
launch autoscroll
font size
0
reset
how to read this tab
guitar tuner
backing track
0:00
0:00
edit
Autoscroll
slow
fast
+/-
esc
set tempo
stop
Nottingham Lace
_____________________________________________________________________
UPDATE!:  now that UG have expanded the amount of columns in there text tabs, i can post
solo with NO NOTES MISSING!!

this tab is now 100% the same as the guitar pro version.
_____________________________________________________________________

This is pretty much just a txt version of my Guitar pro tab.
its set out so that all the rhythm guitar parts are first, then the lead in the lower
of the tab.
Enjoy.

FYI: If something says play  4.5 Times, play the riff the 4 times, then the first half.

[Intro]
[ 0:00 - 0:19 ] (Play 4 Times)

     S  S S S S S S  S S S S S E  E     S  S S S S S S  T T S  S S S E  E
C |----------------------------------|-------------------------------------|
G |----------------------------------|-------------------------------------|
D#|----------------------------------|-------------------------------------|
A#|----------------------------------|-------------------------------------|
F |----------------------------0-----|-------------------------------0-----|
C |--4s-5---4-----3s-4---3-----0-----|--4s-5---4-----3s-4-x-4p-3-----0-----|


Riff 2 (backing) [ 0:20 - 0:34 ] (Play 3 Times)

      E  S  E  S  E  S  E  S  S  S  E      E  S  E  S  E  S E  S S  S E
C |--10----10----10--L-13--x-13-15-13--|--10----10----10--L-8--x-8-10-8--|
G |------------------------------------|---------------------------------|
D#|---7-----7-----7--L-10----10-----L--|---7-----7-----7--L-5----5----L--|
A#|------------------------------------|---------------------------------|
F |------------------------------------|---------------------------------|
C |------------------------------------|---------------------------------|


Riff 3 (backing) [ 0:34 - 0:48 ] (Play 3 Times)


     Q.      Q    Q    E      Q.      Q    Q    E
C |-----------------------|------------------------|
G |-----------------------|------------------------|
D#|-----------------------|------------------------|
A#|--0------10----8----7--|--12------10----8----7--|
F |--0------10----8----7--|--12------10----8----7--|
C |--0------10----8----7--|--12------10----8----7--|

Riff 3.5 (ends on) [ 0:48 - 0:52 ] (Play 1 Time)

     Q.      Q    Q     E     Q.     Q    Q    E
C |------------------------|------------------------|-----|
G |------------------------|------------------------|-----|
D#|------------------------|------------------------|-----|
A#|--12------10----8----7--|--12----10----8----7----|-----|
F |--12------10----8----7--|--12----10----8----7----|-----|
C |--12------10----8----7--|--12----10----8----7----|-----|


Intro Riff [ 0:52 - 1:09 ] (Play 4 Times)

     S  S S S S S S  S S S S S E  E     S  S S S S S S  T T S  S S S E  E
C |----------------------------------|-------------------------------------|
G |----------------------------------|-------------------------------------|
D#|----------------------------------|-------------------------------------|
A#|----------------------------------|-------------------------------------|
F |----------------------------0-----|-------------------------------0-----|
C |--4s-5---4-----3s-4---3-----0-----|--4s-5---4-----3s-4-x-4p-3-----0-----|

Riff 4 (funk)(with Wah)[ 1:09 - 1:26 ] (Play 2 Times)

     Q    E  S S S S  E   E  S S    Q    E  S S S S  E   E  S S
C |----------x-x-x-x---------x-x-|----------x-x-x-x---------x-x-|
G |----------x-x-x-x-12--12--x-x-|----------x-x-x-x-14--12--x-x-|
D#|----------x-x-x-x-12--12--x-x-|----------x-x-x-x-14--12--x-x-|
A#|------------------------------|------------------------------|
F |------------------------------|------------------------------|
C |--0----0----------------------|--0----0----------------------|


                                   Improvised
    Q    E  S S S S  E   E  S S   S          S  E   E   S S S  S  E   E  S S
C |---------x-x-x-x---------x-x-|--x----------x---------------------------x-x-|
G |---------x-x-x-x-14--12--x-x-|--x----------x-12--14--12-----12-14--12--x-x-|
D#|---------x-x-x-x-14--12--x-x-|--x----------x-12--14--12-----12-14--12--x-x-|
A#|-----------------------------|---------------------------------------------|
F |-----------------------------|---------------------------------------------|
C |-0----0----------------------|----------------------------0----------------|

Riff 5 (with Wah)[ 1:26 - 1:45 ] (Play 2 Times)

     E  S E  S E  S E  S E  E     E  S E  S E  S E  S E  E
C |----------------------------|----------------------------|
G |----------------------------|----------------------------|
D#|----------------------------|----------------------------|
A#|----------------------------|----------------------------|
F |----------------------------|----------------------------|
C |--5--5-5--5-5--5-5--5-6--4--|--5--5-5--5-5--5-5--5-6--4--|


     E  S E  S E  S E  S E  E     E  S E  S E  S S E  S S E
C |----------------------------|-----------------------------|
G |----------------------------|-----------------------------|
D#|----------------------------|-----------------------------|
A#|----------------------------|-----------------------------|
F |----------------------------|-----------------------------|
C |--5--5-5--5-5--5-5--5-6--4--|--5--5-5--5-5--8-8-8--6-6-6--|


Riff 6 [ 1:45 - 2:03 ] (Play 8 Times)

     PM  PM     PM PM
     E   E  E.  E  E.  E  E
C |--------------------------|
G |--------------------------|
D#|--------------------------|
A#|--4s--5--5---6--5---x--x--|
F |--4s--5--5---6--5---x--x--|
C |--4s--5--5---6--5---x--x--|


Riff 7 [ 2:02 - 6:30ish ] (Play 8 Times)

      E   E   E   E   E   E   E   E
C |----------------------------------|
G |----------------------------------|
D#|--14--10--14--10---9--10--12---9--|
A#|--12--12--12--12--10--10--10--10--|
F |----------------------------------|
C |----------------------------------|

Riff 8 [ 2:20 - 6:30ish ] (Play 28.5 Times)

      E   E   E   E   E   E   E   E      E   E   E   E   E   E   E   E
C |----------------------------------|----------------------------------|
G |----------------------------------|----------------------------------|
D#|--14--10--14--10---9--10--12---9--|--14--10--14--10---9--10--12---9--|
A#|--12--12--12--12--10--10--10--10--|--12--12--12--12--10--10--10--10--|
F |----------------------------------|----------------------------------|
C |----------------------------------|----------------------------------|


      E   E   E   E   E   E   E   E     E  E   E  E   E   E   E   E
C |----------------------------------|-------------------------------|
G |----------------------------------|-------------------------------|
D#|--14--10--14--10---9--10--12---9--|--7--9--10--7---9--10--12---9--|
A#|--12--12--12--12--10--10--10--10--|--8--8---8--8--10--10--10--10--|
F |----------------------------------|-------------------------------|
C |----------------------------------|-------------------------------|

Riff 9 [ 2:20 - 6:30ish ] (Play 28 Times)

     H        H           H        H           H        H
C |--------------------|--------------------|--------------------|
G |--------------------|--------------------|--------------------|
D#|--7--------5--------|--7--------5--------|--7--------5--------|
A#|--7--------5--------|--7--------5--------|--7--------5--------|
F |--5--------3--------|--5--------3--------|--5--------3--------|
C |--------------------|--------------------|--------------------|


     H        H           H        H           H        H
C |--------------------|--------------------|--------------------|
G |--------------------|--------------------|--------------------|
D#|--3--------5--------|--7--------5--------|--7--------5--------|
A#|--3--------5--------|--7--------5--------|--7--------5--------|
F |--1--------3--------|--5--------3--------|--5--------3--------|
C |--------------------|--------------------|--------------------|


Riff 2/3 (lead) [ 0:20 - 0:34 ] (Play 5.5 Times)

     Q.       Q     Q     E      Q.       Q     Q     E
C |-----------20----18----17--|--22~------20----18----17--|
G |--15~----------------------|---------------------------|
D#|---------------------------|---------------------------|
A#|---------------------------|---------------------------|
F |---------------------------|---------------------------|
C |---------------------------|---------------------------|

Riff 6 (lead) [ 1:45 - 2:03 ] (Play 7 Times)

(bend the 18 on G string a semitone on the 4th repeat)

      E   S  S  S  S  S  S  Q     E   S  S
C |----------------------------------------|
G |----------------------------------------|
D#|------------------------18~----L--------|
A#|--17--17-18-19-18-17-16-----------17-17-|
F |----------------------------------------|
C |----------------------------------------|

Riff 6 (Lead end) (play once)

      E   S  S  S  S  S  S  H
C |-----------------------------------|
G |-----------------------------------|
D#|------------------------18~--------|
A#|--17--17-18-19-18-17-16------------|
F |-----------------------------------|
C |-----------------------------------|


[SOLO] 
[ 2:38 - 6:30ish ]

I HEAVILY suggest getting guitarpro or tuxguitar (can import gp files)
as it is SO much easyer to read.

anyways GOODLUCK!!

                Random slidy stuff
     Q    Q     E                   E  E    S  S    Q    Q     Q    E   S  S    Q     E.
   S Q    E   S  S
C |----------------------------------------------|---------------------------|-------------------------------|
G |----------------------------------------------|---------------------------|-------------------------------|
D#|----------------------------------------/9-10-|--9----L~----7----L~--9-10-|--9b----Lh~---10-7----L~--9-10-|
A#|------------------------------------8\--------|---------------------------|-------------------------------|
F |-------------------------------\10------------|---------------------------|-------------------------------|
C |------------12\-------------------------------|---------------------------|-------------------------------|


      H         S   E.   Q        H         Q     E  S  S    H         Q.     S  S    Q
     S E  Q    S  S
C |---------------------------|---------------------------|-----------------------|--------------------------|
G |--13b--------Lh-13---11----|--10---------L~----L-------|-----------------------|--------------------------|
D#|---------------------------|----------------------9-10-|--9b-------7------9-10-|--9----12---10-7--L--9-10-|
A#|---------------------------|---------------------------|-----------------------|--------------------------|
F |---------------------------|---------------------------|-----------------------|--------------------------|
C |---------------------------|---------------------------|-----------------------|--------------------------|


                                                                           SH
     H         Q.      E      H          E   E   S  S  S  S     Q.         Q        E   S  SS  S
C |-----------------------|-----------------12--12-13-12-13-|--15b------<>15pb~----13--12-13-12-13-|
G |-----------------------|--13b--------10------------------|--------------------------------------|
D#|--9b--------7------10--|---------------------------------|--------------------------------------|
A#|-----------------------|---------------------------------|--------------------------------------|
F |-----------------------|---------------------------------|--------------------------------------|
C |-----------------------|---------------------------------|--------------------------------------|


      H         E    E   S  S  S  S     Q.       E   E.    E.   E       H        E   S  S
    E   T  T
C |--15b--------Lh--13--12-13-12-13-|--15b------15--13p---12---12b--|---L--------L--12-13-12-13--12-13-|
G |---------------------------------|-------------------------------|----------------------------------|
D#|---------------------------------|-------------------------------|----------------------------------|
A#|---------------------------------|-------------------------------|----------------------------------|
F |---------------------------------|-------------------------------|----------------------------------|
C |---------------------------------|-------------------------------|----------------------------------|


                 SH
      Q.         Q       E   S   S  S   S     H.               E   S  S     E   E   Q.
   E   E   E
C |--15b------<>15br----13--12h-13-13h-15-|--15brb------------13--12-13-|--13--15--15b------15--13--12--|
G |---------------------------------------|-----------------------------|-------------------------------|
D#|---------------------------------------|-----------------------------|-------------------------------|
A#|---------------------------------------|-----------------------------|-------------------------------|
F |---------------------------------------|-----------------------------|-------------------------------|
C |---------------------------------------|-----------------------------|-------------------------------|


                                                          |--3--|
   H.             Q        Q      S. S. S  S  S  S  S  S  S  S  S  T  T
--12b------------------|------------------------------------------------|
-----------------------|--17b----15-17-18-17-18-17-15-17-18-17-18-17-18-|
-----------------14----|------------------------------------------------|
-----------------------|------------------------------------------------|
-----------------------|------------------------------------------------|
-----------------------|------------------------------------------------|


   |--6--|  |--6--|  |--6--|  |--6--|  |--6--|  |--6--|
   S  S  S  S  S  S  S  S  S  S  S  S  S  S  S  S  S  S  T  T  T  T  T  T  T  T
--------------------------------------15-17-15----15-17-15-17-18-17-------------|
--17-18-17-15-------15-17-18-15-17-18----------18-------------------17-18-17-15-|
--------------17-15-------------------------------------------------------------|
--------------------------------------------------------------------------------|
--------------------------------------------------------------------------------|
--------------------------------------------------------------------------------|


   |--3--|                    |--3--|  |--3--|                 |--3--|  |--3--|  |--3--|
   S  S  S  E.   S.  S. S  S  S  S  S  S  S  S  T  T  T  T     S  S  S  S  S  S  S  S  S
H             S  S
-----------20b---L--20-18-17----17-18-17-18-17----18-17----|-------------------------------------------------|
--17-18-20-------------------20----------------20-------20-|--18-20-18---------------------------------------|
-----------------------------------------------------------|-----------19-17-19-17-15-12-14brb~--------14-15-|
-----------------------------------------------------------|-------------------------------------------------|
-----------------------------------------------------------|-------------------------------------------------|
-----------------------------------------------------------|-------------------------------------------------|


      S  S  S  S  S  S  S  S  S  S  S  S  Q         S  S  S  S  S  E.   E   S  E.   S  S
C |---------------------------------------------|----------------------------------------|
G |--18----18----18----------18-20-18----18~----|--18-20-18-17-18-17---17--18-17---------|
D#|-----15----14----15-14-15----------15--------|----------------------------------14-15-|
A#|---------------------------------------------|----------------------------------------|
F |---------------------------------------------|----------------------------------------|
C |---------------------------------------------|----------------------------------------|


                                                                |---3--|
   S  S  S  S  S  S  S  S  S  S  S  S  S S  S S      Q      S   S  S   S   E   T. T. S. Q
------------------------------------------------|---------------------------------------------|
--18-20-18----18-20-18----18----15----15--------|-----------------------------17-19-20-20b----|
-----------15----------15----15----15----7-12-7-|--/10~----15h-17-15h-17s-19------------------|
------------------------------------------------|---------------------------------------------|
------------------------------------------------|---------------------------------------------|
------------------------------------------------|---------------------------------------------|


      7   7 7 7  7  7  7  7  7  7  7  7  7  7  7  7  7  7  7  7  7  7  7  7  7  7  7  7
      S   S S S  S  S  S  S  S  S  S  S  S  S  S  S  S  S  S  S  S  S  S  S  S  S  S  S
C |----------------------17-18-17-------17-18-20-18-17----------20-18-17----------------|
G |--20br-L-L-L-17-18-20----------20-18----------------20-18-17----------20-18-17-18-20-|
D#|-------------------------------------------------------------------------------------|
A#|-------------------------------------------------------------------------------------|
F |-------------------------------------------------------------------------------------|
C |-------------------------------------------------------------------------------------|


      7  7  7  7  7  7  7  7  7  7  7  7  7  7  7  7  7  7  7  7  7  7  7  7  7  7  7  7
      S  S  S  S  S  S  S  S  S  S  S  S  S  S  S  S  S  S  S  S  S  S  S  S  S  S  S  S
C |--17-------17-18-17----17-18-17-------17-18-20-18-17----------20-18-17----------------|
G |-----20-17----------20----------20-17----------------20-19-17----------20-18-17-18-20-|
D#|--------------------------------------------------------------------------------------|
A#|--------------------------------------------------------------------------------------|
F |--------------------------------------------------------------------------------------|
C |--------------------------------------------------------------------------------------|


      7  7  7  7  7  7  7  7  7  7  7  7  7  7  7  7  7  7  7  7  7  7  7  7  7  7  7  7
      S  S  S  S  S  S  S  S  S  S  S  S  S  S  S  S  S  S  S  S  S  S  S  S  S  S  S  S
C |--17-------17-18-17----17-18-17-------20-18-17----------20-18-17-------20-18-17-------|
G |-----20-17----------20----------20-17----------20-18-17----------20-18----------20-18-|
D#|--------------------------------------------------------------------------------------|
A#|--------------------------------------------------------------------------------------|
F |--------------------------------------------------------------------------------------|
C |--------------------------------------------------------------------------------------|


      7  7  7  7  7  7  7  7  7  7  7  7  7   7  7  7  7  7  7  7  7  7  7 7 7 7   7  7
      S  S  S  S  S  S  S  S  S  S  S  S  S   S  S  S  S  S  S  S  S  S  S S S S   S  S
C |-------------------------------------------------------------------------------------|
G |--17-18-17-18-17-15-13-17-13-15------------------------------------------------------|
D#|--------------------------------17-15-14s-12-14-15-14-12-15-14-15-14-12-L-L-0s-10-12-|
A#|-------------------------------------------------------------------------------------|
F |-------------------------------------------------------------------------------------|
C |-------------------------------------------------------------------------------------|


      7  7  7  7  7  7  7  7  7  7  7  7  7  7  7  7  7  7  7  7  7  7  7  7  7  7  7  7
      S  S  S  S  S  S  S  S  S  S  S  S  S  S  S  S  S  S  S  S  S  S  S  S  S  S  S  S
C |-----------------------------------------------------------------17-18-17-15----------|
G |--------------------------------------------------------17-18-15-------------18-20-18-|
D#|--14-12-10-12-15-12-14-15-14-12-10-12-14-15-17-19-17-19-------------------------------|
A#|--------------------------------------------------------------------------------------|
F |--------------------------------------------------------------------------------------|
C |--------------------------------------------------------------------------------------|


   7  7  7  7  7  7  7 --- 5  5  5  5
   S  S  S  S  S  S  S  S  S  S  S  S  Q      S  S  S  S
--17-18-17-15-------20-18-17----------20b----20-18-17-15-|
--------------18-17----------20-18-17--------------------|
---------------------------------------------------------|
---------------------------------------------------------|
---------------------------------------------------------|
---------------------------------------------------------|


      7  7  7  7  7  7  7  7  7  7  7  7  7  7  7  7  7  7  7  7  7  7  7  7  7  7  7  7
      S  S  S  S  S  S  S  S  S  S  S  S  S  S  S  S  S  S  S  S  S  S  S  S  S  S  S  S
C |--17-15-17-15-17-15-13-12-13-12----13-12----------------------------------------------|
G |--------------------------------15-------15-13-11-13-15-13-11-------------------------|
D#|--------------------------------------------------------------14-12-14-12-------------|
A#|--------------------------------------------------------------------------15-19-15-19-|
F |--------------------------------------------------------------------------------------|
C |--------------------------------------------------------------------------------------|


      7  7  7  7  7  7  7  7  7  7  7  7  7  7  7  7  7  7  7  7  7  7  7  7  7  7  7  7
      S  S  S  S  S  S  S  S  S  S  S  S  S  S  S  S  S  S  S  S  S  S  S  S  S  S  S  S
C |-----------------------------------------------------------------------------------13-|
G |--------------------------------------------------------------13-11-13-15-17-15-17----|
D#|--------------------------------------------------10-12-14-15-------------------------|
A#|--17-19-17-15-17-15-14-17-15-14-12-14-12-10-12-14-------------------------------------|
F |--------------------------------------------------------------------------------------|
C |--------------------------------------------------------------------------------------|


      7   7   7   7   7  7   7 7  7   7  7   7  7   7   7  7   7  7   7   7  7   7  7  7   77   7  7
      S   S   S   S   S  S   S S  S   S  S   S  S   S   S  S   S  S   S   S  S   S  S  S   SS   S  S
C |--10h-12h-13p-12p-10p-8h-12-8-12p-10p-8h-12p-8h-12p-10p-8h-12p-8h-12p-10p-8h-12p-8-12p-10p-8h-12p-8h-|
G |-----------------------------------------------------------------------------------------------------|
D#|-----------------------------------------------------------------------------------------------------|
A#|-----------------------------------------------------------------------------------------------------|
F |-----------------------------------------------------------------------------------------------------|
C |-----------------------------------------------------------------------------------------------------|


      7   7  7   7  7   7   7  7   7  7   7   7  7   7  7  7  7  7  7  7  7  7  7  7  7  7 7 7
      S   S  S   S  S   S   S  S   S  S   S   S  S   S  S  S  S  S  S  S  S  S  S  S  S  S S S
C |--12p-10p-8h-12p-8h-12p-10p-8h-12p-8h-12p-10p-8h-12-15-17-15----15-18-17-18-17-15-------8h-12-|
G |-------------------------------------------------------------18-------------------18-15-------|
D#|----------------------------------------------------------------------------------------------|
A#|----------------------------------------------------------------------------------------------|
F |----------------------------------------------------------------------------------------------|
C |----------------------------------------------------------------------------------------------|


      7   7  7   7  7   7   7  7   7  7   7   7  7   7  7  7  7  7  7  7  7  7  7  7  7  7  77
      S   S  S   S  S   S   S  S   S  S   S   S  S   S  S  S  S  S  S  S  S  S  S  S  S  S  SS
C |--12p-10p-8h-12p-8h-12p-10p-8h-12p-8h-12p-10p-8h-12-15-17-15-13-15-18-17-18-17-15-13----------|
G |-------------------------------------------------------------------------------------15-13-17-|
D#|----------------------------------------------------------------------------------------------|
A#|----------------------------------------------------------------------------------------------|
F |----------------------------------------------------------------------------------------------|
C |----------------------------------------------------------------------------------------------|


      7  7  7  7  7  7  7  7  7  7  7  7  7  7
      S  S  S  S  S  S  S  S  S  S  S  S  S  S  Q.       E      E   E   E   Q     Q     E
     E   E   E   Q     Q     E
C |---------------------------------------------------------|----------13--12----13--------|
G |--15-13-17-13-15-13--------------------------------------|------------------------------|
D#|--------------------15-14-15-14-15-14-15-------------12--|--12--14------------------12--|
A#|-----------------------------------------15-12~----------|------------------------------|
F |---------------------------------------------------------|------------------------------|
C |---------------------------------------------------------|------------------------------|

C |----------13--12----13--------|
G |------------------------------|
D#|--12--14------------------12--|
A#|------------------------------|
F |------------------------------|
C |------------------------------|


      E   E   E   Q     Q     E        Q     E   H          E      E   E   E   Q     Q     E
C |----------13--12----13----13br--|---L----13--12~------------|----------13--12----13--------|
G |--------------------------------|---------------------------|------------------------------|
D#|--12--14------------------------|-----------------------12--|--12--14------------------12--|
A#|--------------------------------|---------------------------|------------------------------|
F |--------------------------------|---------------------------|------------------------------|
C |--------------------------------|---------------------------|------------------------------|


      E   E   E   Q     E   E   S  S     E   E   E   Q     E   E   E      Q     Q         E
    E   E   S  S
C |----------13--12----13--13--------|----------13--12----13--15--15b--|--L----15pbr~----15--13--12--13-12-|
G |----------------------------------|---------------------------------|-----------------------------------|
D#|--12--14--------------------12-12-|--12--14-------------------------|-----------------------------------|
A#|----------------------------------|---------------------------------|-----------------------------------|
F |----------------------------------|---------------------------------|-----------------------------------|
C |----------------------------------|---------------------------------|-----------------------------------|


      E   E   E   E   E   Q      E       E   E   E   Q     Q     S  S     E   E   E   Q     E E   E
C |--------------13--12--13~---------|----------13--12----13----------|----------13--12----13--15--15b--|
G |----------------------------------|--------------------------------|---------------------------------|
D#|--14--12--14-----------------12~--|--12--14------------------12-12-|--12--14-------------------------|
A#|----------------------------------|--------------------------------|---------------------------------|
F |----------------------------------|--------------------------------|---------------------------------|
C |----------------------------------|--------------------------------|---------------------------------|


        |-----7-----|  |-----7-----|  7  7  7  7
  Q     S  S  S  S  S  S  S  S  S  S  S  S  S  S  E    E      E   E   E   H           S  S
--L----15-13-15-13-12-15-13-12-13-12----------------------|----------13--12br--------------|
-------------------------------------15-17-15-17-15~------|--------------------------------|
------------------------------------------------------12--|--12--14------------------12-12-|
----------------------------------------------------------|--------------------------------|
----------------------------------------------------------|--------------------------------|
----------------------------------------------------------|--------------------------------|


                                                                                      |--3--|
   E   E   Q     H              E   E   E   Q     E   E   E        H         S. S  S. S
 S  E
----------13----12br--------|----------13--12----13--15--15brb--|--L--------13-12-13-12-13-12-----|
----------------------------|-----------------------------------|-----------------------------13--|
--12--14--------------------|--12--14---------------------------|---------------------------------|
----------------------------|-----------------------------------|---------------------------------|
----------------------------|-----------------------------------|---------------------------------|
----------------------------|-----------------------------------|---------------------------------|


      S  E.   E   H          E      E   E   E   S  S  E   E   E   E      S  E.   E   E   S  SS  Q       S
C |----------13--12br--------L--|----------13--12-13-12--------------|----------13--12--13-12-13-15br----13-|
G |-----------------------------|------------------------13----------|--------------------------------------|
D#|--12-14----------------------|--12--14--------------------12--12--|--12-14-------------------------------|
A#|-----------------------------|------------------------------------|--------------------------------------|
F |-----------------------------|------------------------------------|--------------------------------------|
C |-----------------------------|------------------------------------|--------------------------------------|


      7  7  7  7  7  7  7  7  7  7  7  7  7  7 7  7  7  7  7  7  7
      S  S  S  S  S  S  S  S  S  S  S  S  S  S S  S  S  S  S  S  S E    S  S     S  E.   E
   H          S  S
C |--15-13-15-13-12-10-13-10-13-12------------------------10-12-10-L~--------|----------13--12br--------L----|
G |--------------------------------15-13-11-10-8-10-11-13--------------------|-------------------------------|
D#|--------------------------------------------------------------------12-12-|--12-14---------------------14-|
A#|--------------------------------------------------------------------------|-------------------------------|
F |--------------------------------------------------------------------------|-------------------------------|
C |--------------------------------------------------------------------------|-------------------------------|


     S  S  S  E   E   Q    E.    E      E   E   E   E   S  S  S  E.   T  T  T  T
C |----------15--13--12----L~-------|----------13--12--13-12-13-15---13-15-13-12-|
G |---------------------------------|--------------------------------------------|
D#|--L-14-14--------------------12--|--12--14------------------------------------|
A#|---------------------------------|--------------------------------------------|
F |---------------------------------|--------------------------------------------|
C |---------------------------------|--------------------------------------------|


      7  7  7  7  7  7  7  7  7  7  7  7 7  7 7 7 7 7 7 7 7
      S  S  S  S  S  S  S  S  S  S  S  S S  S S S S S S S S Q        S  E.   E   H          SS
C |--10-13-12-10-13-10-12-10-------------------------------------|----------13--12br--------L-----|
G |--------------------------13-11-11-10-8----8-6-5-6-3-6-5-3----|--------------------------------|
D#|----------------------------------------10--------------------|--12-14---------------------14~-|
A#|--------------------------------------------------------------|--------------------------------|
F |--------------------------------------------------------------|--------------------------------|
C |--------------------------------------------------------------|--------------------------------|


      E   E   E   E    Q.      S  S     E   E   E   Q    E  E  E       Q     H           E
    S  S
C |------15--13--15s--17------------|----------13--12----8---------|--------12br-------------17-15-|
G |---------------------------------|-----------------------8--8s--|--10----------------10/--------|
D#|---L-----------------------12-12-|--12--14----------------------|-------------------------------|
A#|---------------------------------|------------------------------|-------------------------------|
F |---------------------------------|------------------------------|-------------------------------|
C |---------------------------------|------------------------------|-------------------------------|


      7  7  7  7  7  7  7  7  7  7  7  7  7  7  7  7  7  7  7  7  7  7  7  7  7  7  7  7
      S  S  S  S  S  S  S  S  S  S  S  S  S  S  S  S  S  S  S  S  S  S  S  S  S  S  S  S
C |--17-15-17-18-17-15----------------15-17-22-------15-17-15----------------------------|
G |--------------------18-17-15-17-18----------17-18----------18-17-15-17-18-17-15-17-18-|
D#|--------------------------------------------------------------------------------------|
A#|--------------------------------------------------------------------------------------|
F |--------------------------------------------------------------------------------------|
C |--------------------------------------------------------------------------------------|


      7  7  7  7  7  7  7  7  7  7  7  7  7  7  7  7  7  7  7  7  7  7  7  7  7  7  7  7
      S  S  S  S  S  S  S  S  S  S  S  S  S  S  S  S  S  S  S  S  S  S  S  S  S  S  S  S
C |-----------15-17-18-17-18-17-15-17-18-15----------15-17-15----------------------------|
G |--15-17-18-------------------------------18-17-15----------18-17-15-17-18-17-15-------|
D#|--------------------------------------------------------------------------------17-15-|
A#|--------------------------------------------------------------------------------------|
F |--------------------------------------------------------------------------------------|
C |--------------------------------------------------------------------------------------|


      7  7  7  7  7  7  7  7  7  7  7  7  7  7  7  7  7  7  7  7  7  7  7  7  7  7  7  7
      S  S  S  S  S  S  S  S  S  S  S  S  S  S  S  S  S  S  S  S  S  S  S  S  S  S  S  S
C |--------------------------------------------------------------------------------------|
G |--------------------------------------------------------------------------------------|
D#|--14-15-14-15-17-15-14----------------------------------------------------------------|
A#|-----------------------17-15-14-15-17-15-14-12----------------------------12-14-15-14-|
F |-----------------------------------------------15-13-12-10-12-13-12-13-15-------------|
C |--------------------------------------------------------------------------------------|


      Q       S  S  S  S  T  T  T  T  S T T  T  T  T  T  S T T     T  T  T  E    T  T  T
        S.  T  T  T  E
C |------------------------------------------------------------|
G |----------------------15-13----13b-----L-15-13----13b-----L-|
D#|----------------14-15-------15-----------------15-----------|
A#|--12~----/12-14---------------------------------------------|
F |------------------------------------------------------------|
C |------------------------------------------------------------|

C |---------------------------------------------------|
G |--15-13----13b--15-13----13b------L--15-13----13b--|
D#|--------15------------15-------------------15------|
A#|---------------------------------------------------|
F |---------------------------------------------------|
C |---------------------------------------------------|


   |--3--|
   S  S  S  H          S  E    S  S   S     E    S  S  S   S  S   S  S   S  S  S   S  S. S.
----------------------10------10-----10-|-------10-10-----10-----10-----10-10-----10-15-17-|
--15-13----13b-----------13b-----13b----|--13b--------13b----13b----13b-------13b----------|
--------15------------------------------|--------------------------------------------------|
----------------------------------------|--------------------------------------------------|
----------------------------------------|--------------------------------------------------|
----------------------------------------|--------------------------------------------------|


   3  |-----7-----|  7  7 --- |--3--|  3  3  3  3  3
   S. S  S  S  S  S  S  S  S  S  S  S  S  S  S  S  S  S  Q         E   E   E   Q     Q.
--18-15-17-18-12-13-12-----------------------------------------|----------13--12----12br------|
-----------------------15-11-13-11-13-11-----------------------|------------------------------|
-----------------------------------------14-12-14-15-10--------|--12--14----------------------|
--------------------------------------------------------12~----|------------------------------|
---------------------------------------------------------------|------------------------------|
---------------------------------------------------------------|------------------------------|


      E   E   E   E   E   Q      S  S     E   E   E   Q     Q      E     E  S   S  E  S  S
    E  Q
C |----------13--15--13--12~----------|----------13--12----12b----10--|--L--8s-10s-8--3s-5s-3--1-------|
G |-----------------------------------|-------------------------------|---------------------------3----|
D#|--12--14---------------------12-12-|--12--14-----------------------|--------------------------------|
A#|-----------------------------------|-------------------------------|--------------------------------|
F |-----------------------------------|-------------------------------|--------------------------------|
C |-----------------------------------|-------------------------------|--------------------------------|


      Q     E   E  E    E   E  E     E   E    E    E  E.   S  Q       Q     Q    E    E   E
    E
C |-------------------------------|--------------------------------|-----------------------------|
G |-------------------------------|--------------------------------|-----------------------------|
D#|--/7----12--10--9s--10s--9--7--|--L--10s--14s--10--9---10s-9----|--7----10----9s--10s--9------|
A#|-------------------------------|--------------------------------|-------------------------/7--|
F |-------------------------------|--------------------------------|-----------------------------|
C |-------------------------------|--------------------------------|-----------------------------|


                                            |--3--|  |--3--|  |--3--|
  E   S  S  Q      E   S  S  S  S  S  S     S  S  S  S  S  S  S  S  S  H          S  S
-------------------------13-15----15-17-|--17-15-13-17-15-13-17-15-13-13b--------15-13-|
-----------------/13--15-------15-------|----------------------------------------------|
-----------10---------------------------|----------------------------------------------|
--L--10-12------------------------------|----------------------------------------------|
----------------------------------------|----------------------------------------------|
----------------------------------------|----------------------------------------------|


      7  7  7  7  7  7  7  7  7  7  7  7  7  7  7  7  7  7  7  7  7  7  7  7  7   7   7  7
      S  S  S  S  S  S  S  S  S  S  S  S  S  S  S  S  S  S  S  S  S  S  S  S  S   S   S  S
C |--15-17--L-15-17-15-13-12-13----------------------12-13-15-13-15-17-13-15-17s-18s-17-15-|
G |-----------------------------17-15-17-15-13-17-15---------------------------------------|
D#|----------------------------------------------------------------------------------------|
A#|----------------------------------------------------------------------------------------|
F |----------------------------------------------------------------------------------------|
C |----------------------------------------------------------------------------------------|


      E    S   E.   T  S  E    S   E.   T  S  S     E.   T   S  E   Q    E  S T  S  S
C |--17s--18s-17---17-18------------------------|-------------------------------12-13-|
G |----------------------17s--18s-17---17-18----|-------------------------------------|
D#|------------------------------------------15-|--14---14s-15-14---------------------|
A#|---------------------------------------------|------------------12---------L-------|
F |---------------------------------------------|-------------------------------------|
C |---------------------------------------------|-------------------------------------|


      E   S  E   S  S  S  E   S  E   S  S  S     E   S   E   S  S  S  E   S  Q    S     E
    E.   E   E   S  E.   E
C |--17--18-17-------------------------------|--------------------------------------|
G |-------------18-17-15-17--18-17---L-------|--------------------------------------|
D#|------------------------------------17-15-|--14--15s-14--12----------------------|
A#|------------------------------------------|-----------------15--L-14--15-14----L-|
F |------------------------------------------|--------------------------------------|
C |------------------------------------------|--------------------------------------|

C |--17--18-17-----------------------|
G |--------------17--17--18-17-------|
D#|------------------------------14--|
A#|----------------------------------|
F |----------------------------------|
C |----------------------------------|


      H         Q    E   S  S     E   E   E   H           E     Q     E   E   Q.        S  S
C |---------------------------|----------13--12br------------|-------15--13--12br------------|
G |---------------------------|--------------------------10--|--L----------------------------|
D#|--14~-------------L--12-12-|--12--14----------------------|-------------------------12-12-|
A#|---------------------------|------------------------------|-------------------------------|
F |---------------------------|------------------------------|-------------------------------|
C |---------------------------|------------------------------|-------------------------------|


                                           SH                        SH        PH
         PH
      E   E   E   E.   S  S. S. S. S.      H         H               Q         Q         Q
         Q
C |----------13--12b---L-13-12-13-12-|--<>13b--------L~--------|--<>13b~----<>13b~----<>13b~----<>13b~----|
G |----------------------------------|-------------------------|------------------------------------------|
D#|--12--14--------------------------|-------------------------|------------------------------------------|
A#|----------------------------------|-------------------------|------------------------------------------|
F |----------------------------------|-------------------------|------------------------------------------|
C |----------------------------------|-------------------------|------------------------------------------|


   |-----3-----|     |-----3-----|     |-----3-----|     |-----3-----|
   E     E     E     E     E     E     E     E     E     E     E     E        Q      Q
 H
--13pb--13pb--13pb--13pb--13pb--13pb--13pb--13pb--13pb--13pb--13pb--13pb--|--13b----13----12b~--------|
--------------------------------------------------------------------------|---------------------------|
--------------------------------------------------------------------------|---------------------------|
--------------------------------------------------------------------------|---------------------------|
--------------------------------------------------------------------------|---------------------------|
--------------------------------------------------------------------------|---------------------------|


     Q     E.   S  S  S  S  S  S  E.      E.   E      S  Q      E   Q        S  S E  E  E
        S   S
C |--L----12---13-13-15-13-12-13-10b---|--L---10pbr-----10~-----L--------|--10----8-----8-----------------|
G |------------------------------------|-------------13------------10----|---L-10----8--------------------|
D#|------------------------------------|---------------------------------|-----------------10------10s-12-|
A#|------------------------------------|---------------------------------|--------------------------------|
F |------------------------------------|---------------------------------|--------------------------------|
C |------------------------------------|---------------------------------|--------------------------------|


      S  S E  E  E   E  E   E   S  S     E    E   Q.       S  S  S  S S   S
C |--10----8-----8------8------------|--------------------------------------|
G |-----10----8----------------------|--------------------------------8s-10-|
D#|-----------------10-----10--10-12-|--12s--14-----------------10-12-------|
A#|----------------------------------|-----------12~------10-12-------------|
F |----------------------------------|--------------------------------------|
C |----------------------------------|--------------------------------------|


                   |-----7-----|  |-----7-----|  7  7  7  7
   S  S  S  S  E   S  S  S  S  S  S  S  S  S  S  S  S  S  S  T  T  T  T
------------------12-13-12-10-12-15-12-13-15-13-12-10-13-12-10-13-15-12-|
--13-10-13-10-13--------------------------------------------------------|
------------------------------------------------------------------------|
------------------------------------------------------------------------|
------------------------------------------------------------------------|
------------------------------------------------------------------------|


      7  7  7  7  7  7  7  7  7  7  7  7  7  7  7  7  7  7  7  7  7  7  7  7  7  7  7  7
      S  S  S  S  S  S  S  S  S  S  S  S  S  S  S  S  S  S  S  S  S  S  S  S  S  S  S  S
C |--13-15-13-12-10-12-15-12-13-15-13-12-10-12-13-12-13-15-13-12-10----------------------|
G |-----------------------------------------------------------------13-11-10-11-13-15-13-|
D#|--------------------------------------------------------------------------------------|
A#|--------------------------------------------------------------------------------------|
F |--------------------------------------------------------------------------------------|
C |--------------------------------------------------------------------------------------|


      7  7  7  7  7  7  7  7  7  7  7  7  7 7  7  7  7  7  7  7  7  7  7  7  7  7  7  7
      S  S  S  S  S  S  S  S  S  S  S  S  S S  S  S  S  S  S  S  S  S  S  S  S  S  S  S
C |--10-12-15-10-12-15-12----------------10-8-10-12-13-15-13-10-12-15-13-15-13-12-13-10-|
G |-----------------------13-11-10-11-13------------------------------------------------|
D#|-------------------------------------------------------------------------------------|
A#|-------------------------------------------------------------------------------------|
F |-------------------------------------------------------------------------------------|
C |-------------------------------------------------------------------------------------|


      7  7  7  7 7  7  7  7  7 7  7  7  7 7  7  7 7  7  7  7 7
      S  S  S  S S  S  S  S  S S  S  S  S S  S  S S  S  S  S S  S  S S  S    W
       W
C |--13-------------------------------------------------------------------|
G |-----10-11-10-8--------------------------------------------------------|
D#|----------------10-12-10-----------------------9-10-12-10-9-12-10-9-10-|
A#|-------------------------10-8-10-12-10-8-10-12-------------------------|
F |-----------------------------------------------------------------------|
C |-----------------------------------------------------------------------|

C |-------------------|-------------------|-------|
G |-------------------|-------------------|-------|
D#|--9----------------|--L----------------|-------|
A#|-------------------|-------------------|-------|
F |-------------------|-------------------|-------|
C |-------------------|-------------------|-------|



************************************

Duration Legend
---------------
W - whole
H - half
Q - quarter
E - 8th
S - 16th
T - 32nd
X - 64th
. - note dotted
|-n-|  - n-tuplets

| x    Dead note
| p    Pull-off
| PM   Palm mute
| ~    Vibrato
| b    Bend
| /    Slide up
| \    Slide down
| h    Hammer-on
| br   Bend release
| pb   Pre-bend
| pbr  Pre-bend release
    
************************************

            
            
Suggest correction
Creating personal tab
Creating personal tab
You can edit any tab online and save it as your Personal.

You can edit, replace or remove any tab part or add personal notes – all changes will be seen only by you.

Personal tabs can be accessed anytime from any device, even offline.
Learn more »
comments
print report bad tab
14 comments total. Showing first comments.
+1 reply
GuitaPlaya 402 Feb 13, 2008 02:04 PM

I just wasted 10 pieces of paper printing. The notes for the most part are right but the durations are way off. Most of the measures don't even add up to four beats during the solo.

0 reply
Hale_91 248 Feb 13, 2008 05:08 PM

the timing is fair right mate,
look at the guitar pro version for clarification.

the timing isnt ment to be perfect, making everynote perfect to the actual song would be very messy, and why would you want to re-create a song to that standard?

DEFINATELY reccomend getting gutiar pro if you can
tuxguitar is a free version.

0 reply
GuitaPlaya 402 Feb 14, 2008 07:56 AM

OK, I took a look at the Guitar Pro (the tux guitar thing wasn't working for me so I downloaded a free trial which means I can't print it). Here's the problem, when you uploaded it on to here, some of the measures got cut off. For example, when there is a measure that has all septuplets, there are only 23 notes in the measure when there should be 28. The guitar pro sounds nearly perfect so you should definitely repost it and make sure none of the measures are getting cut short.

guest
You may want to rate the tab now too:
select rating
Wanna post a correction for this tab? Suggest correction