Oops, an error
Loading. Please wait.

Sled Ride tab

version 2
version 2

Whole song

Interactive

1,083 views 3 this week
no commentswrite comment
1 2 3 4 5
2 more votes to show rating
add to favorites
×
Save as Personal and add changes to this tab that will be seen only by you. Learn more ›
×
You can save this tab as Personal to edit and correct it or add notes. All changes will be seen only by you. Learn more »
launch autoscroll
font size
0
reset
how to read this tab
guitar tuner
backing track
0:00
0:00
edit
Autoscroll
slow
fast
+/-
esc
set tempo
stop
Author
Difficulty
                         Sled Ride
                        Buckethead
                 Shadows Between the Sky (2010)

Music by Buckethead
Transcribed by lVlaniac

Guitar I (Main) - Standard Tuning (EADGBE)
Guitar II (Solo) - Standard Tuning (EADGBE)

Tempo= 117
4/4

 
Section I (0:00 - 0:16)

  Guitar I
  S S S S S S S S S S H S H S   S S S S S S S S S S S S S E. 
|---7p6---6p4---4-------------|-----------------------------|
|-4-----4-----4---7---7---7---|-7p5---5p4---4h5---5h7---7p4-|
|-------------------4---3---4-|-----4-----4-----4-----4-----|
|-----------------------------|-----------------------------|
|-----------------------------|-----------------------------|
|-----------------------------|-----------------------------|

  S S S S S S S S S S H S H S   S S S S S S S S S S S S S E. 
|---7p6---6p4---4-------------|-----------------------------|
|-4-----4-----4---7---7---7---|-7p5---5p4---4h5---5h7---7p4-|
|-------------------4---3---4-|-----4-----4-----4-----4-----|
|-----------------------------|-----------------------------|
|-----------------------------|-----------------------------|
|-----------------------------|-----------------------------|

  S S S S S S S S S S H S H S   S S S S S S S S S S S S S E. 
|---7p6---6p4---4-------------|-----------------------------|
|-4-----4-----4---7---7---7---|-7p5---5p4---4h5---5h7---7p4-|
|-------------------4---3---4-|-----4-----4-----4-----4-----|
|-----------------------------|-----------------------------|
|-----------------------------|-----------------------------|
|-----------------------------|-----------------------------|

  S S S S S S S S S S H S H S   S S S S S S S S S S S S Q 
|---7p6---6p4---4-------------|---------------------------|
|-4-----4-----4---7---7---7---|-7p5---5p4---4h5---5h7---4-|
|-------------------4---3---4-|-----4-----4-----4-----4---|
|-----------------------------|---------------------------|
|-----------------------------|---------------------------|
|-----------------------------|---------------------------|


Section II (0:17 - 0:48)

  Guitar I
  S S S S S S S S S S S S S S E   S S S S S S S S S S S S S S E
|-------------------------------|-------------------------------|
|-------------------------------|-------------------------------|
|-8p4---4h8---8p4---4h8---8p4---|-6p3---3h4---4h6---6p4---4p3---|
|-----6-----6-----6-----6-----6-|-----4-----4-----4-----4-----4-|
|-------------------------------|-------------------------------|
|-------------------------------|-------------------------------|

  S S S S S S S S S S S S S S E   S S S S S S S S S S S S S S E
|-------------------------------|-------------------------------|
|-------------------------------|-------------------------------|
|-3p1---1h3---3h4---4p3---3p1---|-3p1---1h3---3h4---4p3---3p1---|
|-----2-----2-----2-----2-----2-|-----2-----2-----2-----2-----2-|
|-------------------------------|-------------------------------|
|-------------------------------|-------------------------------|

  S S S S S S S S S S S S S S E   S S S S S S S S S S S S S S E
|-------------------------------|-------------------------------|
|-------------------------------|-------------------------------|
|-8p4---4h8---8p4---4h8---8p4---|-6p3---3h4---4h6---6p4---4p3---|
|-----6-----6-----6-----6-----6-|-----4-----4-----4-----4-----4-|
|-------------------------------|-------------------------------|
|-------------------------------|-------------------------------|

  S S S S S S S S S S S S S S E   S S S S S S S S S S S S S S E
|-------------------------------|-------------------------------|
|-------------------------------|-------------------------------|
|-3p1---1h3---3h4---4p3---3p1---|-3p1---1h3---3h4---4p3---3p1---|
|-----2-----2-----2-----2-----2-|-----2-----2-----2-----2-----2-|
|-------------------------------|-------------------------------|
|-------------------------------|-------------------------------|

  S S S S S S S S S S S S S S E   S S S S S S S S S S S S S S E
|-------------------------------|-------------------------------|
|-------------------------------|-------------------------------|
|-------------------------------|-------------------------------|
|-8p4---4h8---8p4---4h8---8p4---|-------------------------------|
|-----6-----6-----6-----6-----6-|-8p4---4h8---8p4---4h8---8p4---|
|-------------------------------|-----6-----6-----6-----6-----6-|

  S S S S S S S S S S S S S S E   S S S S S S S S S S S S S S E
|-------------------------------|-------------------------------|
|-------------------------------|-------------------------------|
|-------------------------------|-------------------------------|
|-4p1---1h4---4p1---1h4---4p1---|-------------------------------|
|-----2-----2-----2-----2-----2-|-4p1---1h4---4p1---1h4---4p1---|
|-------------------------------|-----2-----2-----2-----2-----2-|

  S S S S S S S S S S S S S S E   S S S S S S S S S S S S S S E
|-------------------------------|-------------------------------|
|-------------------------------|-------------------------------|
|-------------------------------|-------------------------------|
|-8p4---4h8---8p4---4h8---8p4---|-------------------------------|
|-----6-----6-----6-----6-----6-|-8p4---4h8---8p4---4h8---8p4---|
|-------------------------------|-----6-----6-----6-----6-----6-|

  S S S S S S S S S S S S S S E   S S S S S S S S S S S S S S E
|-------------------------------|-------------------------------|
|-------------------------------|-------------------------------|
|-------------------------------|-------------------------------|
|-4p1---1h4---4p1---1h4---4p1---|-------------------------------|
|-----2-----2-----2-----2-----2-|-4p1---1h4---4p1---1h4---4p1---|
|-------------------------------|-----2-----2-----2-----2-----2-|


                       Repeat Section I (0:49 - 1:04)
                       Repeat Section II (1:05 - 1:37)


Section III (1:38 - 2:11)

  Guitar I
  Q RE E E E Q   Q RE E E E Q   Q RE E E E Q   Q RE E E E Q 
|--------------|--------------|--------------|--------------|
|-4------------|-4------------|--------------|--------------|
|-4----4-------|-4----4-------|------4-------|------4-------|
|-6------6p4---|-6------6p4---|-6------6p4---|-6------6p4---|
|-7----------7-|-7----------6-|-6----------6-|-6----------7-|
|--------------|--------------|-4------------|-4------------|
|
| Guitar II
| W              w              Q.  E  +H      W
|--------------|--------------|--------------|--------------|
|-11-----------|--------------|--------------|--------------|
|--------------|--------------|--------------|--------------|
|--------------|-13-----------|--------------|--------------|
|--------------|--------------|-14s13-(13)---|-11-----------|
|--------------|--------------|--------------|--------------|

  Guitar I
  Q RE E E E Q   Q RE E E E Q   Q RE E E E Q   Q RE E E E Q 
|--------------|--------------|--------------|--------------|
|-4------------|-4------------|--------------|--------------|
|-4----4-------|-4----4-------|------4-------|------4-------|
|-6------6p4---|-6------6p4---|-6------6p4---|-6------6p4---|
|-7----------7-|-7----------6-|-6----------6-|-6----------7-|
|--------------|--------------|-4------------|-4------------|
|
| Guitar II
| W              w              Q.  Q  Q  E    H.   +E   E
|--------------|--------------|--------------|-----------14-|
|-11-----------|--------------|-14--12-11----|--------------|
|--------------|--------------|-----------13-|-13--(13)-----|
|--------------|-13-----------|--------------|--------------|
|--------------|--------------|--------------|--------------|
|--------------|--------------|--------------|--------------|

  Guitar I
  Q RE E E E Q   Q RE E E E Q   Q RE E E E Q   Q RE E E E Q 
|--------------|--------------|--------------|--------------|
|-4------------|-4------------|--------------|--------------|
|-4----4-------|-4----4-------|------4-------|------4-------|
|-6------6p4---|-6------6p4---|-6------6p4---|-6------6p4---|
|-7----------7-|-7----------6-|-6----------6-|-6----------7-|
|--------------|--------------|-4------------|-4------------|
|
| Guitar II
| Q  E  H   E    Q  E  H   E    Q. Q    Q  E   H  RE E Q
|-14-12-11--14-|-14-12-11-----|--------------|--------------|
|--------------|-----------14-|-14S12---11s9-|-9------------|
|--------------|--------------|--------------|-------8------|
|--------------|--------------|--------------|---------9----|
|--------------|--------------|--------------|--------------|
|--------------|--------------|--------------|--------------|

  Guitar I
  Q RE E E E Q   Q RE E E E Q   Q RE E E E Q   W   +W
|--------------|--------------|--------------|---|-----|
|-4------------|-4------------|--------------|---|-----|
|-4----4-------|-4----4-------|------4-------|---|-----|
|-6------6p4---|-6------6p4---|-6------6p4---|---|-----|
|-7----------7-|-7----------6-|-6----------6-|-6-|-(6)-|
|--------------|--------------|-4------------|-4-|-(4)-|
|
| Guitar II
|  Q  E E  +H    RE E E Q  Q E   Q. Q Q E      W   +W
|--------------|-------------9-|-9--7s6s4----|-4-|-(4)-|
|--------------|---------------|-------------|---|-----|
|-/8--9-8--(8)-|-----------8---|-------------|---|-----|
|--------------|----8-9-11-----|-------------|---|-----|
|--------------|---------------|-------------|---|-----|
|--------------|---------------|-------------|---|-----|


                       Repeat Section I (2:12 - 2:28)
                       Repeat Section II (2:29 - 3:05)
                        Except for last bar, which is

  S S S S S S S S S S S S S E RS 
|--------------------------------|
|--------------------------------|
|--------------------------------|
|--------------------------------|
|-4p1---1h4---4p1---1h4---4p1----|
|-----2-----2-----2-----2--------|




Duration Legend                      Tablature Legend
---------------                      ----------------
W - whole                            h   - hammer-on 
H - half                             p   - pull-off
Q - quarter                          /\  - slide into or out of (from/to "nowhere")
E - 8th                              s   - legato slide
S - 16th                             S   - shift slide
+ - note tied to previous
R - rest
. - note dotted

            
            
Suggest correction
Creating personal tab
Creating personal tab
You can edit any tab online and save it as your Personal.

You can edit, replace or remove any tab part or add personal notes – all changes will be seen only by you.

Personal tabs can be accessed anytime from any device, even offline.
Learn more »
Give kudos to tab author, rate the tab!
1 2 3 4 5
comments
print report bad tab
guest
You may want to rate the tab now too:
select rating
Wanna post a correction for this tab? Suggest correction