Oops, an error
Loading. Please wait.

Thorne Room tab

version 1
version 1

Whole song

Interactive

61 views 1 this week
no commentswrite comment
1 2 3 4 5
3 more votes to show rating
add to favorites
×
Save as Personal and add changes to this tab that will be seen only by you. Learn more ›
×
You can save this tab as Personal to edit and correct it or add notes. All changes will be seen only by you. Learn more »
launch autoscroll
font size
0
reset
how to read this tab
guitar tuner
edit
Autoscroll
slow
fast
+/-
esc
set tempo
stop
185 BPM
4/4

[Intro]                                                           
E|--------------------------------|--------------------------------|
B|--------0-------0---2---0-------|--------------------0-----------|
G|1-----------1-------------------|--------3-------3-------3---1---|
D|----------------------------4---|------------4-------------------|
A|--------------------------------|--------------------------------|
E|--------------------------------|--------------------------------|
 
                                                                    
E|--------------------------------|--------------------------------|
B|--------------------------------|--------------------------------|
G|--------------------1-------1---|--------1-----------1-----------|
D|--------------------------------|----------------------------4---|
A|--------------------------------|--------------------------------|
E|--------------------------------|--------------------------------|
 
                                                                    
E|--------------------------------|--------------------------------|
B|--------0-------0---2---0-------|--------------------0-----------|
G|1-----------1-------------------|--------3-------3-------3---1---|
D|----------------------------4---|------------4-------------------|
A|--------------------------------|--------------------------------|
E|--------------------------------|--------------------------------|
 
                                                                    
E|--------------------------------|--------------------------------|
B|--------------------------------|--------------------------------|
G|------------------------1-------|--------------------------------|
D|--------------------------------|----------------------------4---|
A|--------------------------------|--------------------------------|
E|--------------------------------|--------------------------------|
 
                                                                    
E|--------------------------------|--------------------------------|
B|--------0-------0---2---0-------|--------------------0-----------|
G|1-----------1-------------------|--------3-------3-------3---1---|
D|----------------------------4---|------------4-------------------|
A|--------------------------------|--------------------------------|
E|--------------------------------|--------------------------------|
 
                                                                    
E|--------------------------------|--------------------------------|
B|--------------------------------|--------------------------------|
G|--------------------1-------1---|--------1-----------1-----------|
D|--------------------------------|----------------------------4---|
A|--------------------------------|--------------------------------|
E|--------------------------------|--------------------------------|
 
                                                                    
E|--------------------------------|--------------------------------|
B|--------0-------0---2---0-------|--------------------0-----------|
G|1-----------1-------------------|--------3-------3-------3---1---|
D|----------------------------4---|------------4-------------------|
A|--------------------------------|--------------------------------|
E|--------------------------------|--------------------------------|
 
                                                                    
E|--------------------------------|--------------------------------|
B|--------------------------------|--------------------------------|
G|------------------------1-------|----1---------------------------|
D|--------------------------------|4-------4-------4---------------|
A|--------------------------------|--------------------------------|
E|--------------------------------|------------------------2-------|
 
 [A]                                                                
E|--------------------------------|--------------------------------|
B|--------------------------------|--------------------------------|
G|--------------------------------|--------------------------------|
D|--------------------------------|--------------------------------|
A|--------------------------------|--------------------------------| (x8)
E|--------------------------------|--------------------------------|

 
 [B]                                                                
E|--------------------------------|--------------------------------|
B|--------0-------0---2---0-------|--------------------0-----------|
G|1-----------1-------------------|--------3-------3-------3---1---|
D|----------------------------4---|------------4-------------------|
A|--------------------------------|--------------------------------|
E|--------------------------------|--------------------------------|
 
                                                                    
E|--------------------------------|--------------------------------|
B|--------------------------------|--------------------------------|
G|--------------------1-------1---|--------1-----------1-----------|
D|--------------------------------|----------------------------4---|
A|--------------------------------|--------------------------------|
E|--------------------------------|--------------------------------|
 
                                                                    
E|--------------------------------|--------------------------------|
B|--------0-------0---2---0-------|--------------------0-----------|
G|1-----------1-------------------|--------3-------3-------3---1---|
D|----------------------------4---|------------4-------------------|
A|--------------------------------|--------------------------------|
E|--------------------------------|--------------------------------|
 
                                                                    
E|--------------------------------|--------------------------------|
B|--------------------------------|--------------------------------|
G|------------------------1-------|--------------------------------|
D|--------------------------------|----------------------------4---|
A|--------------------------------|--------------------------------|
E|--------------------------------|--------------------------------|
 
                                                                    
E|--------------------------------|--------------------------------|
B|--------0-------0---2---0-------|--------------------0-----------|
G|1-----------1-------------------|--------3-------3-------3---1---|
D|----------------------------4---|------------4-------------------|
A|--------------------------------|--------------------------------|
E|--------------------------------|--------------------------------|
 
                                                                    
E|--------------------------------|--------------------------------|
B|--------------------------------|--------------------------------|
G|--------------------1-------1---|--------1-----------1-----------|
D|--------------------------------|----------------------------4---|
A|--------------------------------|--------------------------------|
E|--------------------------------|--------------------------------|
 
                                                                    
E|--------------------------------|--------------------------------|
B|--------0-------0---2---0-------|--------------------0-----------|
G|1-----------1-------------------|--------3-------3-------3---1---|
D|----------------------------4---|------------4-------------------|
A|--------------------------------|--------------------------------|
E|--------------------------------|--------------------------------|
 
                                                                    
E|--------------------------------|--------------------------------|
B|--------------------------------|--------------------------------|
G|------------------------1-------|----1---------------------------|
D|--------------------------------|4-------4-------4---------------|
A|--------------------------------|--------------------------------|
E|--------------------------------|------------------------2-------|
 
 [C]                                                                
E|--------------------------------|--------------------------------|
B|--------------------------------|--------------------------------|
G|--------------------------------|--------------------------------|
D|--------------------------------|--------------------------------|
A|--------------------------------|--------------------------------| (x8)
E|--------------------------------|--------------------------------|
 
 [D]                                                                
E|----7---6-----------------------|--------2---4-------------------|
B|----------------7---4-----------|4-------------------2---4-------|
G|----------------------------6---|--------------------------------|
D|--------------------------------|--------------------------------|
A|--------------------------------|--------------------------------|
E|--------------------------------|--------------------------------|
 
                                                                    
E|--------------------------------|--------------------------------|
B|0-------------------------------|--------------------------------|
G|----3-------3---------------1---|----1-----------1---------------|
D|----------------4-------4-------|--------------------------------|
A|--------------------------------|--------------------------------|
E|--------------------------------|--------------------------------|
 
                                                                    
E|----7---6-----------------------|--------2---4-------------------|
B|----------------7---4-----------|4-------------------2---4-------|
G|----------------------------6---|--------------------------------|
D|--------------------------------|--------------------------------|
A|--------------------------------|--------------------------------|
E|--------------------------------|--------------------------------|
 
                                                                    
E|--------------------------------|--------------------------------|
B|0-------------------------------|--------------------------------|
G|----3-------3---------------1---|----1-----------1---------------|
D|----------------4-------4-------|--------------------------------|
A|--------------------------------|--------------------------------|
E|--------------------------------|--------------------------------|
 
                                                                    
E|--------------------------------|--------------------------------|
B|--------------------------------|--------------------------------|
G|----1---------------------------|--------------------------------|
D|--------4-------4---2-------2---|1-------1-----------------------|
A|--------------------------------|------------2-------2-----------|
E|--------------------------------|--------------------------------|
 
                                                                    
E|--------------------------------|--------------------------------|
B|----------------0---------------|--------------------------------|
G|----3-------3-------3-------1---|--------1-----------1-----------|
D|--------------------------------|--------------------------------|
A|--------------------------------|--------------------------------|
E|--------------------------------|--------------------------------|
 
                                                                    
E|--------------------------------|--------------------------------|
B|--------------------------------|--------------------------------|
G|----1---------------------------|--------------------------------|
D|--------4-------4---2-------2---|1-------1-----------------------|
A|--------------------------------|------------2-------2-----------|
E|--------------------------------|--------------------------------|
 
                                                                    
E|--------------------------------|--------------------------------|
B|----------------0-----------0---|--------------------------------|
G|----3-------3-------3-----------|3-------1-----------------------|
D|--------------------------------|--------------------------------|
A|--------------------------------|--------------------------------|
E|--------------------------------|--------------------------------|
 
 [E]                                                                
E|--------------------------------|--------------------------------|
B|--------------------------------|--------------------------------|
G|--------------------------------|--------------------------------|
D|--------------------------------|--------------------------------|
A|--------------------------------|--------------------------------|
E|--------------------------------|--------------------------------|
 
                                                                    
E|--------------------------------|--------2-----------------------|
B|----------------4-----------4---|----------------4---------------|
G|--------------------------------|--------------------------------|
D|--------------------------------|--------------------------------|
A|--------------------------------|--------------------------------|
E|--------------------------------|--------------------------------|
 
                                                                    
E|--------------------------------|--------------------------------|
B|--------------------------------|--------------------------------|
G|--------------------------------|--------------------------------|
D|--------------------------------|--------------------------------|
A|--------------------------------|--------------------------------|
E|--------------------------------|--------------------------------|
 
                                                                    
E|----------------2---------------|--------2-------2---------------|
B|--------------------------------|4-----------4-------0-----------|
G|--------------------------------|--------------------------------|
D|--------------------------------|--------------------------------|
A|--------------------------------|--------------------------------|
E|--------------------------------|--------------------------------|
 
                                                                    
E|--------------------------------|--------------------------------|
B|--------------------------------|--------------------------------|
G|--------------------------------|--------------------------------|
D|--------------------------------|--------------------------------|
A|--------------------------------|--------------------------------|
E|--------------------------------|--------------------------------|
 
                                                                    
E|--------------------------------|--------2-----------------------|
B|----------------4-----------4---|----------------4---------------|
G|--------------------------------|--------------------------------|
D|--------------------------------|--------------------------------|
A|--------------------------------|--------------------------------|
E|--------------------------------|--------------------------------|
 
                                                                    
E|--------------------------------|--------------------------------|
B|--------------------------------|--------------------------------|
G|--------------------------------|--------------------------------|
D|--------------------------------|--------------------------------|
A|--------------------------------|--------------------------------|
E|--------------------------------|--------------------------------|
 
                                                                    
E|--------------------------------|--------2-----------------------|
B|----------------4-------4---4---|----------------4---------------|
G|--------------------------------|--------------------------------|
D|--------------------------------|--------------------------------|
A|--------------------------------|--------------------------------|
E|--------------------------------|--------------------------------|
 
 [F]                                                                
E|--------------------------------|--------------------------------|
B|--------------------------------|--------------------------------|
G|--------------------------------|--------------------------------|
D|--------------------------------|--------------------------------|
A|--------------------------------|--------------------------------| (x8)
E|--------------------------------|--------------------------------|
 
[Solo A]                                                           
E|--------14------16--------------|--------16----------14----------|
B|16----------16------16------16--|----------------16--------------|
G|------------------------13------|----13------13------------------|
D|--------------------------------|--------------------------------|
A|--------------------------------|--------------------------------|
E|--------------------------------|--------------------------------|
 
                                                                    
E|----------------16----------16--|--------16----------------------|
B|--------16----------16--16------|--------------------------------|
G|13----------13------------------|--------------------------------|
D|--------------------------------|--------------------------------|
A|--------------------------------|--------------------------------|
E|--------------------------------|--------------------------------|
 
                                                                    
E|----------------16--------------|----11--14----------14----------|
B|--------16----------16------16--|--------------------------------|
G|13----------------------13------|--------------------------------|
D|--------------------------------|--------------------------------|
A|--------------------------------|--------------------------------|
E|--------------------------------|--------------------------------|
 
                                                                    
E|----------------16----------16--|----------------16--------------|
B|--------16----------16----------|--------------------------------|
G|13----------13------------------|--------------------------------|
D|--------------------------------|--------------------------------|
A|--------------------------------|--------------------------------|
E|--------------------------------|--------------------------------|
 
                                                                    
E|----------------16--------------|----11--14----------14----------|
B|--------16------------------16--|--------------------------------|
G|13----------------------13------|--------------------------------|
D|--------------------16----------|--------------------------------|
A|--------------------------------|--------------------------------|
E|--------------------------------|--------------------------------|
 
                                                                    
E|----------------16----------16--|16--------------16--------------|
B|--------16----------16----------|--------------------------------|
G|13----------13------------------|--------------------------------|
D|--------------------------------|--------------------------------|
A|--------------------------------|--------------------------------|
E|--------------------------------|--------------------------------|
 
                                                                    
E|----------------16--------------|----11--14----------14----------|
B|--------16------------------16--|--------------------------------|
G|13----------------------13------|--------------------------------|
D|--------------------16----------|--------------------------------|
A|--------------------------------|--------------------------------|
E|--------------------------------|--------------------------------|
 
                                                                    
E|----------------16----------16--|----------------16--------------|
B|--------16----------16----------|--------------------------------|
G|13----------13------------------|--------------------------------|
D|--------------------------------|--------------------------------|
A|--------------------------------|--------------------------------|
E|--------------------------------|--------------------------------|
 
[Solo B]                                                           
E|4-------------------------------|6---6---7---7---4---4-----------|
B|--------------------------------|------------------------7---7---|
G|--------------------------------|--------------------------------|
D|--------------------------------|--------------------------------|
A|--------------------------------|--------------------------------|
E|--------------------------------|--------------------------------|
 
                                                                    
E|--------------------------------|--------------------------------|
B|4---4---2---2-------------------|--------------------------------|
G|----------------4---4---4---4---|3-------1-----------------------|
D|----------------------------8---|--------------------------------|
A|--------------------------------|--------------------------------|
E|--------------------------------|--------------------------------|
 
                                                                    
E|--------------------------------|6---6---7---7---4---4---6---6---|
B|4-------------------------------|--------------------------------|
G|--------------------------------|--------------------------------|
D|--------------------------------|--------------------------------|
A|--------------------------------|--------------------------------|
E|--------------------------------|--------------------------------|
 
                                                                    
E|7---7---4---4-------------------|--------4---4---4---4-----------|
B|----------------4---4-------4---|4---4---------------------------|
G|------------------------6---6---|--------------------------------|
D|--------------------------------|--------------------------------|
A|--------------------------------|--------------------------------|
E|--------------------------------|--------------------------------|
 
                                                                    
E|16--16--16--16------------------|11--11--------------------------|
B|----------------14--14--14--16--|--------9---9---12--12--11--11--|
G|--------------------------------|--------------------------------|
D|--------------------------------|--------------------------------|
A|--------------------------------|--------------------------------|
E|--------------------------------|--------------------------------|
 
                                                                    
E|16--16--16--16--14--14--14--16--|16--16--16--16--16--16--16--16--|
B|--------------------------------|--------------------------------|
G|--------------------------------|--------------------------------|
D|--------------------------------|--------------------------------|
A|--------------------------------|--------------------------------|
E|--------------------------------|--------------------------------|
 
                                                                    
E|16--16--16--16------------------|11--11--------------------------|
B|----------------14--14--14--16--|--------12--12--11--11--9---9---|
G|--------------------------------|--------------------------------|
D|--------------------------------|--------------------------------|
A|--------------------------------|--------------------------------|
E|--------------------------------|--------------------------------|
 
                                                                    
E|16--16--16--16--16--16--16--16--|16--16--16--16--16--------------|
B|--------------------------------|--------------------------------|
G|--------------------------------|--------------------------------|
D|--------------------------------|--------------------------------|
A|--------------------------------|--------------------------------|
E|--------------------------------|--------------------------------|

[Solo C]                                                           
E|----9---11----------------------|--------11--------------14------|
B|12--------------9---------------|12--14--------------------------|
G|--------------------------------|----------------13--------------|
D|--------------------------------|--------------------------------|
A|--------------------------------|--------------------------------|
E|--------------------------------|--------------------------------|
 
                                                                    
E|14--14--14--16------------------|----9---11----------------------|
B|----------------16------16--16--|12----------9-----------9-------|
G|--------------------------------|--------------------------------|
D|--------------------------------|--------------------------------|
A|--------------------------------|--------------------------------|
E|--------------------------------|--------------------------------|
 
                                                                    
E|----9---11----------------------|--------11--------------14------|
B|12--------------9---------------|12--14--------------------------|
G|--------------------------------|----------------13--------------|
D|--------------------------------|--------------------------------|
A|--------------------------------|--------------------------------|
E|--------------------------------|--------------------------------|
 
                                                                    
E|14--14--14--16------------------|------------------------16------|
B|----------------16------16--16--|----14--16------------------16--|
G|--------------------------------|16----------13------------------|
D|--------------------------------|--------------------------------|
A|--------------------------------|--------------------------------|
E|--------------------------------|--------------------------------|
 
                                                                    
E|18--18--18--18--19------19--19--|19--------------19----------16--|
B|--------------------------------|--------------------------------|
G|--------------------------------|--------------------------------|
D|--------------------------------|--------------------------------|
A|--------------------------------|--------------------------------|
E|--------------------------------|--------------------------------|
 
                                                                    
E|11--11--11--11--11--------------|------------------------11------|
B|------------------------12--12--|--------12----------11------9---|
G|--------------------------------|------------8-------------------|
D|--------------------------------|--------------------------------|
A|--------------------------------|--------------------------------|
E|--------------------------------|--------------------------------|
 
                                                                    
E|18--18--19--19--19----------18--|19--18--------------------------|
B|--------------------------------|--------19--19--19--19--16--19--|
G|--------------------------------|--------------------------------|
D|--------------------------------|--------------------------------|
A|--------------------------------|--------------------------------|
E|--------------------------------|--------------------------------|
 
                                                                    
E|16------16----------------------|14------16----------------------|
B|--------------------------------|------------------------16------|
G|--------------------------------|--------------------------------|
D|--------------------------------|--------------------------------|
A|--------------------------------|--------------------------------|
E|--------------------------------|--------------------------------|
 
                                                                    
E|16--16--18--18--18----------18--|19--18--------------------------|
B|--------------------------------|--------19----------------------|
G|--------------------------------|--------------------16----------|
D|--------------------------------|--------------------------------|
A|--------------------------------|--------------------------------|
E|--------------------------------|--------------------------------|
 
                                                                    
E|7---7---7---7---9-------9---7---|6-------------------7-----------|
B|--------------------------------|--------------------------------|
G|--------------------------------|--------------------------------|
D|--------------------------------|--------------------------------|
A|--------------------------------|--------------------------------|
E|--------------------------------|--------------------------------|
 
                                                                    
E|16--16--18--18--18----------19--|--------19----------------------|
B|--------------------------------|--------------------------------|
G|--------------------------------|--------------------------------|
D|--------------------------------|--------------------------------|
A|--------------------------------|--------------------------------|
E|--------------------------------|--------------------------------|
 
                                                                    
E|19------------------------------|--------------------------------|
B|--------------------------------|--------------------------------|
G|--------------------------------|--------------------------------|
D|--------------------------------|2-------4-------2---------------|
A|--------------------------------|--------------------------------|
E|--------------------------------|--------------------------------|
 
[Solo D]                                                           
E|--------------------------------|----------------4-------4-------|
B|----------------0-------2-------|--------------------4-----------|
G|1-------------------1-----------|--------------------------------|
D|--------------------------------|--------------------------------|
A|--------------------------------|--------------------------------|
E|--------------------------------|--------------------------------|
 
                                                                    
E|----------------4---------------|4-------------------------------|
B|--------------------------------|--------------------------------|
G|--------------------------------|--------------------------------|
D|--------------------------------|--------------------------------|
A|--------------------------------|--------------------------------|
E|--------------------------------|--------------------------------|
 
                                                                    
E|--------------------------------|----------------4-------6-------|
B|----------------0-------0---2---|----4---4-----------4-----------|
G|1-------------------1-----------|------------6-------------------|
D|--------------------------------|--------------------------------|
A|--------------------------------|--------------------------------|
E|--------------------------------|--------------------------------|
 
                                                                    
E|--------7-----------9---9-------|11------------------------------|
B|--------------------------------|--------------------------------|
G|--------------------------------|--------------------------------|
D|--------------------------------|--------------------------------|
A|--------------------------------|--------------------------------|
E|--------------------------------|--------------------------------|
 
                                                                    
E|--------------------------------|----------------2-------4-------|
B|------------------------2---4---|--------4-----------4-----------|
G|1---------------4---1-----------|--------------------------------|
D|--------------------------------|--------------------------------|
A|--------------------------------|--------------------------------|
E|--------------------------------|--------------------------------|
 
                                                                    
E|4---4---4---4---4---2-----------|--------------------------------|
B|------------------------4-------|--------2-----------0-----------|
G|----------------------------4---|--------------------------------|
D|--------------------------------|--------------------------------|
A|--------------------------------|--------------------------------|
E|--------------------------------|--------------------------------|
 
                                                                    
E|--------------------------------|--------2-------4---2---4-------|
B|----------------0-------2-------|4-------------------------------|
G|1-------------------1-----------|--------------------------------|
D|--------------------------------|--------------------------------|
A|--------------------------------|--------------------------------|
E|--------------------------------|--------------------------------|
 
                                                                    
E|4---4---4---4---6---6---7-------|----9-----------11--------------|
B|--------------------------------|--------------------------------|
G|--------------------------------|--------------------------------|
D|--------------------------------|--------------------------------|
A|--------------------------------|--------------------------------|
E|--------------------------------|--------------------------------|
 
                                                                    
E|18----------19------------------|----9-----------11--------------|
B|------------------------19------|--------------------------------|
G|--------------------------------|--------------------------------|
D|--------------------------------|--------------------------------|
A|--------------------------------|--------------------------------|
E|--------------------------------|--------------------------------|
 
                                                                    
E|11----------11------------------|--------23----------------------|
B|--------------------------------|----21--------------------------|
G|--------------------------------|--------------------------------|
D|--------------------------------|--------------------------------|
A|--------------------------------|--------------------------------|
E|--------------------------------|--------------------------------|
 
                                                                    
E|18----------19------------------|----9-------------------11------|
B|------------------------19------|--------------------------------|
G|--------------------------------|--------------------------------|
D|--------------------------------|--------------------------------|
A|--------------------------------|--------------------------------|
E|--------------------------------|--------------------------------|
 
                                                                    
E|------------------------14--16--|----20--23----------------------|
B|--------16----------------------|24------------------------------|
G|--------------------------------|--------------------------------|
D|--------------------------------|--------------------------------|
A|--------------------------------|--------------------------------|
E|--------------------------------|--------------------------------|
 
                                                                    
E|--------------------------------|--------------------------------|
B|--------------------------------|--------------------------------|
G|1---------------------------1---|1-------1-------1---1---1---1---|
D|--------------------------------|--------------------------------|
A|--------------------------------|--------------------------------|
E|--------------------------------|--------------------------------|
 
                                                                    
E|--------------------------------|--------------------------------|
B|--------------------------------|--------------------------------|
G|----1---------------------------|--------------------------------|
D|--------------------------------|--------------------------------|
A|--------------------------------|--------------------------------|
E|--------------------------------|--------------------------------|
 
                                                                    
E|--------------------------------|--------------------------------|
B|--------------------------------|--------------------------------|
G|1-------------------------------|--------------------------------|
D|--------------------------------|--------------------------------|
A|--------------------------------|--------------------------------|
E|--------------------------------|--------------------------------|
 
                                                                    
E|--------------------------------|--------------------------------|
B|--------------------------------|--------------------------------|
G|--------------------------------|--------------------------------|
D|--------------------------------|--------------------------------|
A|--------------------------------|--------------------------------|
E|--------------------------------|--------------------------------|
 
                                                                    
E|--------------------------------|--------------------------------|
B|--------------------------------|--------------------------------|
G|1-------------------------------|--------------------------------|
D|--------------------------------|--------------------------------|
A|--------------------------------|--------------------------------|
E|--------------------------------|--------------------------------|
 
                                                                    
E|--------------------------------|--------------------------------|
B|--------------------------------|--------------------------------|
G|--------------------------------|--------------------------------|
D|--------------------------------|--------------------------------|
A|--------------------------------|--------------------------------|
E|--------------------------------|--------------------------------|
 
                                                                    
E|--------16--16--16--16--16--16--|16----------16----------16------|
B|--------------------------------|--------------------------------|
G|--------------------------------|--------------------------------|
D|--------------------------------|--------------------------------|
A|--------------------------------|--------------------------------|
E|--------------------------------|--------------------------------|
 
                                                                    
E|----------------16--------------|--------------------------------|
B|--------------------------------|--------------------------------|
G|--------------------------------|--------------------------------|
D|--------------------------------|--------------------------------|
A|--------------------------------|--------------------------------|
E|--------------------------------|--------------------------------|
 
                                                                    
E|16--------------16--16--16--16--|16--16--16----------------------|
B|--------------------------------|--------------------------------|
G|--------------------------------|--------------------------------|
D|--------------------------------|--------------------------------|
A|--------------------------------|--------------------------------|
E|--------------------------------|--------------------------------|
 
                                                                    
E|--------------------------------|--------------------------------|
B|--------------------------------|--------------------------------|
G|--------------------------------|--------------------------------|
D|--------------------------------|--------------------------------|
A|--------------------------------|--------------------------------|
E|--------------------------------|--------------------------------|
 
                                                                    
E|16----------16--16--16--16--16--|16--------------16--16--14------|
B|--------------------------------|--------------------------------|
G|--------------------------------|--------------------------------|
D|--------------------------------|--------------------------------|
A|--------------------------------|--------------------------------|
E|--------------------------------|--------------------------------|
 
                                                                    
E|16------------------------------|--------------------------------|
B|--------------------------------|--------------------------------|
G|--------------------------------|--------------------------------|
D|--------------------------------|--------------------------------|
A|--------------------------------|--------------------------------|
E|--------------------------------|--------------------------------|
 
                                                                    
E|16--------------16--16--16--16--|--------16------16--16----------|
B|--------------------------------|--------------------------------|
G|--------------------------------|--------------------------------|
D|--------------------------------|--------------------------------|
A|--------------------------------|--------------------------------|
E|--------------------------------|--------------------------------|
 
                                                                    
E|16------------------------------|--------------------------------|
B|--------------------------------|--------------------------------|
G|--------------------------------|--------------------------------|
D|--------------------------------|--------------------------------|
A|--------------------------------|--------------------------------|
E|--------------------------------|--------------------------------|
 
                                                                    
E|16------16--16--16--16--16--16--|--------16----------16----------|
B|--------------------------------|--------------------------------|
G|--------------------------------|--------------------------------|
D|--------------------------------|--------------------------------|
A|--------------------------------|--------------------------------|
E|--------------------------------|--------------------------------|
 
                                                                    
E|--------------------------------|--------------------------------|
B|--------------------------------|--------------------------------|
G|--------------------------------|--------------------------------|
D|--------------------------------|--------------------------------|
A|--------------------------------|--------------------------------|
E|--------------------------------|--------------------------------|
 
[Solo E]                                                           
E|4---4-----------4-----------4---|--------4-----------4-----------|
B|--------------------------------|--------------------------------|
G|--------------------------------|--------------------------------|
D|--------------------------------|--------------------------------|
A|--------------------------------|--------------------------------|
E|--------------------------------|--------------------------------|
 
                                                                    
E|4---4---4---4---4---4---4---7---|----9---11----------11--11------|
B|--------------------------------|12------------------------------|
G|--------------------------------|--------------------------------|
D|--------------------------------|--------------------------------|
A|--------------------------------|--------------------------------|
E|--------------------------------|--------------------------------|
 
                                                                    
E|--------11--11--9---9---12--12--|11--11--14--14--12--12--11--11--|
B|9---9---------------------------|--------------------------------|
G|--------------------------------|--------------------------------|
D|--------------------------------|--------------------------------|
A|--------------------------------|--------------------------------|
E|--------------------------------|--------------------------------|
 
                                                                    
E|--------11--11--9---9---12--12--|11--11--14--14--12--12--11------|
B|9---9---------------------------|--------------------------------|
G|--------------------------------|--------------------------------|
D|--------------------------------|--------------------------------|
A|--------------------------------|--------------------------------|
E|--------------------------------|--------------------------------|
 
                                                                    
E|--------11--11--9---9---12--12--|11--11--14--14--12--12--11------|
B|9---9---------------------------|--------------------------------|
G|--------------------------------|--------------------------------|
D|--------------------------------|--------------------------------|
A|--------------------------------|--------------------------------|
E|--------------------------------|--------------------------------|
 
                                                                    
E|--------11--11--9---9---12--12--|11--11--12--12--11--------------|
B|9---9---------------------------|--------------------------------|
G|--------------------------------|--------------------------------|
D|--------------------------------|--------------------------------|
A|--------------------------------|--------------------------------|
E|--------------------------------|--------------------------------|
 
[Solo F]                                                            
E|------------------------2-------|7---------------6---------------|
B|0-------2-------4---------------|----------------------------7---|
G|--------------------------------|--------------------------------|
D|--------------------------------|--------------------------------|
A|--------------------------------|--------------------------------|
E|--------------------------------|--------------------------------|
 
                                                                    
E|4-------------------------------|--------------------------------|
B|--------------------------------|--------------------------------|
G|--------------------------------|--------------------------------|
D|--------------------------------|--------------------------------|
A|--------------------------------|--------------------------------|
E|--------------------------------|--------------------------------|
 
                                                                    
E|------------------------2-------|9-----------7-----------6-------|
B|0-------2---4-------------------|--------------------------------|
G|--------------------------------|--------------------------------|
D|--------------------------------|--------------------------------|
A|--------------------------------|--------------------------------|
E|--------------------------------|--------------------------------|
 
                                                                    
E|4-------------------------------|--------------------------------|
B|--------------------------------|--------------------------------|
G|--------------------------------|--------------------------------|
D|--------------------------------|--------------------------------|
A|--------------------------------|--------------------------------|
E|--------------------------------|--------------------------------|
 
                                                                    
E|------------------------2-------|7---------------6---------------|
B|0-------2-------4---------------|----------------------------7---|
G|--------------------------------|--------------------------------|
D|--------------------------------|--------------------------------|
A|--------------------------------|--------------------------------|
E|--------------------------------|--------------------------------|
 
                                                                    
E|4-------------------------------|--------------------------------|
B|--------------------------------|--------------------------------|
G|--------------------------------|--------------------------------|
D|--------------------------------|--------------------------------|
A|--------------------------------|--------------------------------|
E|--------------------------------|--------------------------------|
 
                                                                    
E|------------------------9-------|11------------------------------|
B|--------------------------------|--------12------11------9-------|
G|--------6-------8---------------|--------------------------------|
D|9-------------------------------|--------------------------------|
A|--------------------------------|--------------------------------|
E|--------------------------------|--------------------------------|
 
                                                                    
E|--------------------------------|--------------------------------|
B|--------------------------------|--------------------------------|
G|--------------------------------|--------------------------------|
D|--------------------------------|--------------------------------|
A|--------------------------------|--------------------------------|
E|--------------------------------|--------------------------------|
 
                                                                    
E|16------14--------------16------|14------------------------------|
B|--------------------------------|----12--------------------------|
G|------------16------------------|----------------13--11------11--|
D|--------------------------------|------------------------13------|
A|--------------------------------|--------------------------------|
E|--------------------------------|--------------------------------|
 
                                                                    
E|16------14--------------16------|14--11--------------------------|
B|--------------------------------|----------------14--12------12--|
G|------------16------------------|------------------------13------|
D|--------------------------------|--------------------------------|
A|--------------------------------|--------------------------------|
E|--------------------------------|--------------------------------|
 
                                                                    
E|16------14--------------16------|14--11----------11------14------|
B|--------------------------------|--------14------------------14--|
G|------------16------------------|--------------------------------|
D|--------------------------------|--------------------------------|
A|--------------------------------|--------------------------------|
E|--------------------------------|--------------------------------|
 
                                                                    
E|119---119-----------------------|4-------2-----------------------|
B|----12------9---12--9-----------|----5-------2---2---------------|
G|------------------------11--9---|------------------3-4-3-1---1---|
D|--------------------------------|--------------------------------|
A|--------------------------------|--------------------------------|
E|--------------------------------|--------------------------------|
 
                                                                    
E|----------------2---------------|2-------0-----------------------|
B|0-----------0-----------0---0---|----------------4-------0-------|
G|----3---------------------------|----------------------------3---|
D|--------------------------------|--------------------------------|
A|--------------------------------|--------------------------------|
E|--------------------------------|--------------------------------|
 
                                                                    
E|----------------2---------------|2---4---2---2-------------------|
B|----0-------0---------------0---|--------------------------------|
G|3-------3---------------3-------|--------------------------------|
D|--------------------------------|--------------------------------|
A|--------------------------------|--------------------------------|
E|--------------------------------|--------------------------------|
 
                                                                    
E|----------------2---------------|--------4-------------------7---|
B|----0-------0---------------0---|7---------------7-------4-------|
G|3-------3---------------3-------|--------------------------------|
D|--------------------------------|--------------------------------|
A|--------------------------------|--------------------------------|
E|--------------------------------|--------------------------------|
 
                                                                    
E|------------------------14--14--|11--11--11--------------9---11--|
B|12--11--11--12--12--------------|--------------------------------|
G|--------------------------------|--------------------------------|
D|--------------------------------|--------------------------------|
A|--------------------------------|--------------------------------|
E|--------------------------------|--------------------------------|
 
                                                                    
E|9---------------11--------------|--------------------------------|
B|--------------------------------|--------------------------------|
G|--------------------------------|--------------------------------|
D|--------------------------------|4-----------2-------1-----------|
A|--------------------------------|--------------------------------|
E|--------------------------------|--------------------------------|
 
                                                                    
E|11------11------11--------------|23--------------23--------------|
B|--------------------------------|--------------------------------|
G|--------------------------------|--------------------------------|
D|--------------------------------|--------------------------------|
A|--------------------------------|--------------------------------|
E|--------------------------------|--------------------------------|
 
                                                                    
E|11--------------------------11--|----------------23--------------|
B|--------------------------------|--------------------------------|
G|--------------------------------|--------------------------------|
D|--------------------------------|--------------------------------|
A|--------------------------------|--------------------------------|
E|--------------------------------|--------------------------------|
 
                                                                    
E|------------------------11------|----9---------------------------|
B|--------------------------------|--------------------------------|
G|--------------------------------|--------------------------------|
D|--------------------------------|--------------------------------|
A|--------------------------------|--------------------------------|
E|--------------------------------|--------------------------------|
 
[Solo G]                                                           
E|--------------------------------|--------------------------------|
B|0---------------0---0---0---0---|--------2---2---4---4---5---5---|
G|--------------------------------|4---4---------------------------|
D|--------------------------------|--------------------------------|
A|--------------------------------|--------------------------------|
E|--------------------------------|--------------------------------|
 
                                                                    
E|2---2---0---0-------------------|----------------2---2---4---4---|
B|----------------4---4---2---2---|--------2---2-------------------|
G|--------------------------------|4---4---------------------------|
D|--------------------------------|--------------------------------|
A|--------------------------------|--------------------------------|
E|--------------------------------|--------------------------------|
 
                                                                    
E|----------------11--11--14--14--|16--16----------19--19--16--16--|
B|12--12--14--14------------------|--------16--16------------------|
G|--------------------------------|--------------------------------|
D|--------------------------------|--------------------------------|
A|--------------------------------|--------------------------------|
E|--------------------------------|--------------------------------|
 
                                                                    
E|18--18----------16--16--18--18--|19--19--16--16--18--18--19--18--|
B|--------16--16------------------|--------------------------------|
G|--------------------------------|--------------------------------|
D|--------------------------------|--------------------------------|
A|--------------------------------|--------------------------------|
E|--------------------------------|--------------------------------|
 
                                                                    
E|16--16--18--18--19--19--16--16--|18--18--19--19--16--16--18--18--|
B|--------------------------------|--------------------------------|
G|--------------------------------|--------------------------------|
D|--------------------------------|--------------------------------|
A|--------------------------------|--------------------------------|
E|--------------------------------|--------------------------------|
 
                                                                    
E|16--16--18--18--19--19--16--16--|18--18--19--19--16--16--18--18--|
B|--------------------------------|--------------------------------|
G|--------------------------------|--------------------------------|
D|--------------------------------|--------------------------------|
A|--------------------------------|--------------------------------|
E|--------------------------------|--------------------------------|
 
                                                                    
E|----------------19--19--16--16--|18--18--19--19--16--16--18--1819|
B|----16--16--16------------------|--------------------------------|
G|--------------------------------|--------------------------------|
D|--------------------------------|--------------------------------|
A|--------------------------------|--------------------------------|
E|--------------------------------|--------------------------------|
 
                                                                    
E|19------19----------------------|--------------------------------|
B|--------------------------------|--------------------------------|
G|--------------------------------|--------------------------------|
D|--------------------------------|--------------------------------|
A|--------------------------------|--------------------------------|
E|--------------------------------|--------------------------------|
 
                                                                    
E|--------------------------------|------------------------7-------|
B|0-------------------------------|--------------------------------|
G|--------------------------------|--------------------------------|
D|--------------------------------|--------------------------------|
A|--------------------------------|--------------------------------|
E|--------------------------------|--------------------------------|
 
                                                                    
E|------------7-------------------|19------------------------------|
B|--------------------------------|--------------------------------|
G|--------------------------------|--------------------------------|
D|--------------------------------|--------------------------------|
A|--------------------------------|--------------------------------|
E|--------------------------------|--------------------------------|
 
                                                                    
E|--------------------------------|------------------------7-------|
B|0---------------0---------------|--------------------------------|
G|--------------------------------|--------------------------------|
D|--------------------------------|--------------------------------|
A|--------------------------------|--------------------------------|
E|--------------------------------|--------------------------------|
 
                                                                    
E|----------------------------18--|19------------------------------|
B|--------------------------------|--------------------------------|
G|--------------------16----------|--------------------------------|
D|--------------------------------|--------------------------------|
A|--------------------------------|--------------------------------|
E|--------------------------------|--------------------------------|
 
                                                                    
E|--------------------------------|------------------------7-------|
B|0---------------0---------------|--------------------------------|
G|--------------------------------|--------------------------------|
D|--------------------------------|--------------------------------|
A|--------------------------------|--------------------------------|
E|--------------------------------|--------------------------------|
 
                                                                    
E|----------------------------18--|18------------------------------|
B|--------------------------------|--------------------------------|
G|--------------------------------|--------------------------------|
D|--------------------------------|--------------------------------|
A|--------------------------------|--------------------------------|
E|--------------------------------|--------------------------------|
 
                                                                    
E|--------------------------------|------------------------7-------|
B|0-------------------------------|--------------------------------|
G|--------------------------------|4-------------------------------|
D|--------------------------------|--------------------------------|
A|--------------------------------|--------------------------------|
E|--------------------------------|--------------------------------|
 
 [Solo H]                                                           
E|------------18--19--------------|--------------------------------|
B|----17--19----------------------|--------------------------------|
G|16------------------------------|--------------------------------|
D|--------------------------------|--------------------------------|
A|--------------------------------|--------------------------------|
E|--------------------------------|--------------------------------|
 
                                                                    
E|14--16----------------------16--|14----------------------11------|
B|--------------------------------|----12--------------12----------|
G|--------------------------------|----------------13--------------|
D|--------------------------------|--------------------------------|
A|--------------------------------|--------------------------------|
E|--------------------------------|--------------------------------|
 
                                                                    
E|14--11--------------------------|6-------------------------------|
B|--------1412111214--12--11--12--|--------7-------4-------7---4---|
G|--------------------------------|------------6-------------------|
D|--------------------------------|--------------------------------|
A|--------------------------------|--------------------------------|
E|--------------------------------|--------------------------------|
 
                                                                    
E|----------------7-------7---9---|----------------19------18--16--|
B|9-------------------9-----------|16------------------------------|
G|--------------------------------|--------------------------------|
D|--------------------------------|--------------------------------|
A|--------------------------------|--------------------------------|
E|--------------------------------|--------------------------------|
 
                                                                    
E|--------16----------------------|--------------------------------|
B|--------------------------------|--------------------------------|
G|--------------------------------|--------------------------------|
D|--------------------------------|--------------------------------|
A|--------------------------------|--------------------------------|
E|--------------------------------|--------------------------------|
 
                                                                    
E|16--------------16--14----------|----------------11------14--11--|
B|--------------------------------|12----------12----------------14|
G|--------------------------------|--------13----------------------|
D|--------------------------------|--------------------------------|
A|--------------------------------|--------------------------------|
E|--------------------------------|--------------------------------|
 
                                                                    
E|7-6-7-6-9-------7---6-----------|--------2-------4---------------|
B|------------9-----------9-------|4-----------4-------------------|
G|----------------------------6---|--------------------------------|
D|--------------------------------|--------------------------------|
A|--------------------------------|--------------------------------|
E|--------------------------------|--------------------------------|
 
                                                                    
E|------------------------14------|14------12--11--11--12--14------|
B|12------12--11--12----------12--|----12--------------------------|
G|----13--------------------------|--------------------------------|
D|--------------------------------|--------------------------------|
A|--------------------------------|--------------------------------|
E|--------------------------------|--------------------------------|
 
                                                                    
E|----16--18--19--18------16--16--|--------16------16--14----------|
B|19------------------19----19----|------------------------16--17--|
G|--------------------------------|--------------------------------|
D|--------------------------------|--------------------------------|
A|--------------------------------|--------------------------------|
E|--------------------------------|--------------------------------|
 
                                                                    
E|11----------9---9---11--9-------|------------------------9---11--|
B|--------------------------------|----12--12--11--11--------------|
G|--------------------------------|--------------------------------|
D|--------------------------------|--------------------------------|
A|--------------------------------|--------------------------------|
E|--------------------------------|--------------------------------|
 
                                                                    
E|11--12--11--------------9---11--|9-------7---6---6---------------|
B|--------------------------------|--------------------------------|
G|--------------------------------|--------------------------------|
D|--------------------------------|--------------------------------|
A|--------------------------------|--------------------------------|
E|--------------------------------|--------------------------------|
 
                                                                    
E|11--12--11--------------9---11--|9-------7---6---6---------------|
B|--------------------------------|--------------------------------|
G|--------------------------------|--------------------------------|
D|--------------------------------|--------------------------------|
A|--------------------------------|--------------------------------|
E|--------------------------------|--------------------------------|
 
                                                                    
E|11--12--11--------------9---11--|9-------7---6---6---------------|
B|--------------------------------|--------------------------------|
G|--------------------------------|--------------------------------|
D|--------------------------------|--------------------------------|
A|--------------------------------|--------------------------------|
E|--------------------------------|--------------------------------|
 
                                                                    
E|11--12--11--------------9---11--|9-------7---6---6---------------|
B|--------------------------------|--------------------------------|
G|--------------------------------|--------------------------------|
D|--------------------------------|--------------------------------|
A|--------------------------------|--------------------------------|
E|--------------------------------|--------------------------------|
 
                                                                    
E|11--12--11--------------9---11--|9-------7---6---6---------------|
B|--------------------------------|--------------------------------|
G|--------------------------------|--------------------------------|
D|--------------------------------|--------------------------------|
A|--------------------------------|--------------------------------|
E|--------------------------------|--------------------------------|
 
                                                                    
E|11--12--11--------------9---11--|9-------7---6---6-------7---6---|
B|--------------------------------|--------------------------------|
G|--------------------------------|--------------------------------|
D|--------------------------------|--------------------------------|
A|--------------------------------|--------------------------------|
E|--------------------------------|--------------------------------|
 
[Solo I]                                                           
E|----------------------------16--|--------------------------------|
B|--------------------------------|--------------------------------|
G|16----15----13------13----------|--------------------------------|
D|----------------16--------------|--------------------------------|
A|--------------------------------|--------------------------------|
E|--------------------------------|--------------------------------|
 
                                                                    
E|----------------11------11------|----------------11------11------|
B|9---11--12--9-------------------|9---11--12--9-------------------|
G|--------------------------------|--------------------------------|
D|--------------------------------|--------------------------------|
A|--------------------------------|--------------------------------|
E|--------------------------------|--------------------------------|
 
                                                                    
E|----------------11----------14--|----11--12--11--11------11------|
B|----11--12----------------------|--------------------------------|
G|13----------13----------13------|--------------------------------|
D|--------------------------------|--------------------------------|
A|--------------------------------|--------------------------------|
E|--------------------------------|--------------------------------|
 
                                                                    
E|----------------11------11------|----------------11------11------|
B|9---11--12--9-------------------|9---11--12--9-------------------|
G|--------------------------------|--------------------------------|
D|--------------------------------|--------------------------------|
A|--------------------------------|--------------------------------|
E|--------------------------------|--------------------------------|
 
                                                                    
E|----------------16--------------|--------------------------------|
B|--------------------------------|--------------------------------|
G|13------------------------------|--------------------------------|
D|--------------------------------|--------------------------------|
A|--------------------------------|--------------------------------|
E|--------------------------------|--------------------------------|
 
                                                                    
E|16--------------16--------------|16--14--------------------------|
B|--------------------------------|--------------------------------|
G|--------------------------------|--------16----------15----------|
D|--------------------------------|--------------------------------|
A|--------------------------------|--------------------------------|
E|--------------------------------|--------------------------------|
 
                                                                    
E|4---------------4-----------4---|----4---4-----------------------|
B|--------------------------------|--------------------------------|
G|--------------------------------|--------------------------------|
D|--------------------------------|--------------------------------|
A|--------------------------------|--------------------------------|
E|--------------------------------|--------------------------------|
 
                                                                    
E|16--------------16--------------|16--14--------------------------|
B|--------------------------------|--------16----------------------|
G|--------------------------------|--------------------16------15--|
D|--------------------------------|--------------------------------|
A|--------------------------------|--------------------------------|
E|--------------------------------|--------------------------------|
 
                                                                    
E|4---------------4---------------|--------------------------------|
B|--------------------------------|--------------------------------|
G|----------------------------1---|----1---1---1---1---------------|
D|--------------------------------|--------------------------------|
A|--------------------------------|--------------------------------|
E|--------------------------------|--------------------------------|
 
                                                                    
E|16--------------16--------------|16--14--------------------------|
B|--------------------------------|--------16----------------------|
G|--------------------------------|--------------------16----------|
D|--------------------------------|--------------------------------|
A|--------------------------------|--------------------------------|
E|--------------------------------|--------------------------------|
 
                                                                    
E|4---------------4-----------4---|----4---4-----------------------|
B|--------------------------------|--------------------------------|
G|--------------------------------|--------------------------------|
D|--------------------------------|--------------------------------|
A|--------------------------------|--------------------------------|
E|--------------------------------|--------------------------------|
 
                                                                    
E|16--------------16--------------|16----------18------19----------|
B|--------------------------------|--------------------------------|
G|--------------------------------|--------------------------------|
D|--------------------------------|--------------------------------|
A|--------------------------------|--------------------------------|
E|--------------------------------|--------------------------------|
 
                                                                    
E|21------------------------------|--------------------------------|
B|------------19------------------|--------------------------------|
G|--------------------------------|--------------------------------|
D|--------------------------------|--------------------------------|
A|--------------------------------|--------------------------------|
E|--------------------------------|--------------------------------|
 
                                                                    
E|--------------------------------|--------------------------------|
B|0-------------------------------|------------------------0---0---|
G|--------------------------------|--------------------------------|
D|--------------------------------|--------------------------------|
A|--------------------------------|--------------------------------|
E|--------------------------------|--------------------------------|
 
                                                                    
E|--------------------------------|--------------------------------|
B|0---0---0-------0-------0-------|--------------------------------|
G|----------------------------1---|--------------------------------|
D|--------------------------------|--------4-----------------------|
A|--------------------------------|----------------4-------2---4---|
E|--------------------------------|--------------------------------|
 
                                                                    
E|--------------------------------|------------------------4---6---|
B|--------------------------------|----------------5---7-----------|
G|1---------------1---1---1---1---|--------3---6-------------------|
D|--------------------------------|6---6---------------------------|
A|--------------------------------|--------------------------------|
E|--------------------------------|--------------------------------|
 
                                                                    
E|7-------------------------------|--------------------------------|
B|--------------------------------|--------------------------------|
G|--------------------------------|--------------------------------|
D|--------------------------------|--------------------------------|
A|--------------------------------|--------------------------------|
E|--------------------------------|--------------------------------|
 
                                                                    
E|--------------------------------|--------------------------------|
B|4-------5-4-5-4-2---------------|2-------4-----------------------|
G|--------------------------------|------------4-----------3-------|
D|--------------------------------|--------------------------------|
A|--------------------------------|--------------------------------|
E|--------------------------------|--------------------------------|
 
                                                                    
E|--------------------------------|--------------------------------|
B|4-------5-4-5-4-2---------------|2-------4-----------------------|
G|--------------------------------|------------4-----------3-------|
D|--------------------------------|--------------------------------|
A|--------------------------------|--------------------------------|
E|--------------------------------|--------------------------------|
 
                                                                    
E|--------------------------------|--------------------------------|
B|4-------5-4-5-4-2---------------|2-------4-----------------------|
G|--------------------------------|------------4-------3-------1---|
D|--------------------------------|--------------------------------|
A|--------------------------------|--------------------------------|
E|--------------------------------|--------------------------------|
 
                                                                    
E|------------------------4-------|4---4---2---4---4---4---4---2---|
B|--------------------------------|--------------------------------|
G|----1---1---1---1---1-----------|--------------------------------|
D|--------------------------------|--------------------------------|
A|--------------------------------|--------------------------------|
E|--------------------------------|--------------------------------|
 
                                                                    
E|2---4---4-------2---4---4---4---|7---7---7---6-------------------|
B|--------------------------------|--------------------7-----------|
G|--------------------------------|--------------------------------|
D|--------------------------------|--------------------------------|
A|--------------------------------|--------------------------------|
E|--------------------------------|--------------------------------|
 
                                                                    
E|2---4---4---4---2---4---4---4---|7---7---7---6---6---------------|
B|--------------------------------|--------------------7---7-------|
G|--------------------------------|--------------------------------|
D|--------------------------------|--------------------------------|
A|--------------------------------|--------------------------------|
E|--------------------------------|--------------------------------|
 
                                                                    
E|2---4---4---4---2---4---4---4---|7---7---7---6---6---------------|
B|--------------------------------|--------------------7---7-------|
G|--------------------------------|--------------------------------|
D|--------------------------------|--------------------------------|
A|--------------------------------|--------------------------------|
E|--------------------------------|--------------------------------|
 
                                                                    
E|------------------------16------|--------------------------------|
B|--------------------------------|--------------------------------|
G|13------------------------------|--------------------------------|
D|--------------------------------|--------------------------------|
A|--------------------------------|--------------------------------|
E|--------------------------------|--------------------------------|
 
[Solo J]                                                           
E|19------18----------------------|--------18--19--18------19------|
B|----------------16--------------|--------------------16----------|
G|------------------------16------|--------------------------------|
D|--------------------------------|--------------------------------|
A|--------------------------------|--------------------------------|
E|--------------------------------|--------------------------------|
 
                                                                    
E|21------19------18--19--18------|14--16--14--16------------------|
B|----------------------------21--|------------------------16------|
G|--------------------------------|--------------------------------|
D|--------------------------------|--------------------------------|
A|--------------------------------|--------------------------------|
E|--------------------------------|--------------------------------|
 
                                                                    
E|21--------------19------18------|19--18--16----------16------16--|
B|--------------------------------|----------------19------19------|
G|--------------------------------|--------------------------------|
D|--------------------------------|--------------------------------|
A|--------------------------------|--------------------------------|
E|--------------------------------|--------------------------------|
 
                                                                    
E|14--------------16--------------|------------------------16--18--|
B|--------------------------------|--------------------------------|
G|--------------------------------|--------------------------------|
D|--------------------------------|--------------------------------|
A|--------------------------------|--------------------------------|
E|--------------------------------|--------------------------------|
 
                                                                    
E|19------18----------------------|--------21----------19----------|
B|--------------------------------|--------------------------------|
G|--------------------------------|20------------------------------|
D|--------------------------------|--------------------------------|
A|--------------------------------|--------------------------------|
E|--------------------------------|--------------------------------|
 
                                                                    
E|19--18----------19------18------|14------11------11--11----------|
B|--------------------------------|--------------------------------|
G|--------------------------------|--------------------------------|
D|--------------------------------|--------------------------------|
A|--------------------------------|--------------------------------|
E|--------------------------------|--------------------------------|
 
                                                                    
E|19--------------18--19--18--16--|14------14----------------------|
B|--------------------------------|--------------------------------|
G|--------------------------------|--------------------------------|
D|--------------------------------|--------------------------------|
A|--------------------------------|--------------------------------|
E|--------------------------------|--------------------------------|
                                                                     
E|----------------14--------------|16------------------------------|
B|--------------------------------|--------------------------------|
G|--------------------------------|--------------------------------|
D|--------------------------------|--------------------------------|
A|--------------------------------|--------------------------------|
E|--------------------------------|--------------------------------|
 
[Solo K]                                                           
E|--------------------------------|--------------------------------|
B|----2---4-----------2---4-5-4---|0-------------------------------|
G|4---------------4---------------|----1-----------1-------1-------|
D|--------------------------------|--------4---2-------------------|
A|--------------------------------|--------------------------------|
E|--------------------------------|--------------------------------|
                                                                    
E|--------------------------------|--------4---2-----------2-------|
B|----2---4-----------2---4-------|----2---------------------------|
G|4---------------4---------------|4-------------------------------|
D|--------------------------------|--------------------------------|
A|--------------------------------|--------------------------------|
E|--------------------------------|--------------------------------|
                                                                     
E|--------------------------------|--------------------------------|
B|----2---4-----------2---4-------|----2---4-5-4-------------------|
G|4---------------4---------------|4-------------------1-----------|
D|--------------------------------|----------------4-------4---4---|
A|--------------------------------|--------------------------------|
E|--------------------------------|--------------------------------|
                                                                     
E|------------------------0---0---|--------------------------------|
B|--------0---0---2---2-----------|4---4---2---2---5---5---4---4---|
G|1-------------------------------|--------------------------------|
D|--------------------------------|--------------------------------|
A|--------------------------------|--------------------------------|
E|--------------------------------|--------------------------------|
                                                                     
E|----------------2---2---4-------|--------------------------------|
B|4---4---5---5-------------------|4---4---5---5---4---4-----------|
G|--------------------------------|------------------------4---4---|
D|--------------------------------|--------------------------------|
A|--------------------------------|--------------------------------|
E|--------------------------------|--------------------------------|
                                                                     
E|----------------2---2---4-------|----0---2---0-------------------|
B|4---4---5---5-------------------|4---------------4-------4-------|
G|--------------------------------|--------------------------------|
D|--------------------------------|--------------------------------|
A|--------------------------------|--------------------------------|
E|--------------------------------|--------------------------------|
                                                                    
E|----------------2---2---4-------|----0-------------------2-------|
B|4---4---5---5-------------------|4-------4---0---0---------------|
G|--------------------------------|--------------------------------|
D|--------------------------------|--------------------------------|
A|--------------------------------|--------------------------------|
E|--------------------------------|--------------------------------|
                                                                    
E|--------------------------------|--------11----------------------|
B|4-------5-------4---------------|--------------------------------|
G|--------------------------------|8---9---------------------------|
D|--------------------------------|--------------------------------|
A|--------------------------------|--------------------------------|
E|--------------------------------|--------------------------------|
 
[Solo L]                                                           
E|--------11----------11----------|11------9-----------------------|
B|----9-----------9-----------9---|----------------12--11--11------|
G|8-----------8-----------8-------|--------------------------------|
D|--------------------------------|--------------------------------|
A|--------------------------------|--------------------------------|
E|--------------------------------|--------------------------------|
                                                                   
E|--------11----------11----------|--16----16--14------------------|
B|----9-----------9-----------9---|16--------------16------16------|
G|8-----------8-------------------|--------------------------------|
D|--------------------------------|--------------------------------|
A|--------------------------------|--------------------------------|
E|--------------------------------|--------------------------------| 
                                                                    
E|--------11----------11----------|11------9-----------------------|
B|----9-----------9-----------9---|------------12--11--12--11--9---|
G|8-----------8-----------8-------|--------------------------------|
D|--------------------------------|--------------------------------|
A|--------------------------------|--------------------------------|
E|--------------------------------|--------------------------------|
                                                                    
E|--------4---4-------------------|--------------------------------|
B|--------------------------------|--------------------------------|
G|--------------------------------|--------------------------------|
D|--------------------------------|--------------------------------|
A|--------------------------------|--------------------------------|
E|--------------------------------|--------------------------------|
                                                                    
E|--------------------------------|--------------------------------|
B|--------------------------------|--------------------------------|
G|--------------------------------|--------------------------------|
D|------------------------1-------|2-------4-------2-------1-------|
A|--------1-------4---------------|--------------------------------|
E|4-------------------------------|--------------------------------|
                                                                    
E|--------------------------------|--------------------------------|
B|--------------------------------|--------------------------------|
G|--------------------------------|--------------------------------|
D|--------1-----------------------|--------------------------------|
A|4-------------------------------|--------------------------------|
E|----------------4---------------|--------------------------------|
                                                                     
E|--------------------------------|--------------------------------|
B|--------------------------------|--------------------------------|
G|--------------------------------|--------------------------------|
D|------------------------1-------|--------------------------------|
A|----1---2-------4---------------|4-------2-------1---------------|
E|4-------------------------------|------------------------2-------|
                                                                     
E|--------------------------------|--------------------------------|
B|--------------------------------|--------------------------------|
G|--------------------------------|--------------------------------|
D|--------------------------------|--------------------------------|
A|--------------------------------|--------------------------------|
E|4-------------------------------|--------------------------------| 
                                                                    
E|--------------------------------|--------------------------------|
B|--------------------------------|--------------------------------|
G|--------------------------------|--------------------------------|
D|------------------------1-------|2-------4-------2-------1-------|
A|----1---2-------4---------------|--------------------------------|
E|4-------------------------------|--------------------------------| 
                                                                    
E|--------------------------------|--------------------------------|
B|--------------------------------|--------------------------------|
G|--------------------------------|--------------------------------|
D|--------1-------1---------------|--------------------------------|
A|4-------------------------------|--------------------------------|
E|--------------------------------|--------------------------------|
                                                                     
E|--------------------------------|--------------------------------|
B|--------------------------------|--------------------------------|
G|--------------------------------|--------------------------------|
D|--------------------------------|----1---------------------------|
A|----1---2-------4-------4---4---|4-------4-------2-------1-------|
E|4-------------------------------|--------------------------------|
                                                                     
E|--------------------------------|--------------------------------|
B|--------------------------------|--------------------------------|
G|--------------------------------|--------------------------------|
D|--------------------------------|--------------------------------|
A|--------------------------------|--------------------------------|
E|4-------------------------------|--------------------------------|
                                                                     
E|--------------------------------|--------------------------------|
B|----------------0-------2-------|4-------5-------4-------2-------|
G|1-------3-----------------------|--------------------------------|
D|--------------------------------|--------------------------------|
A|--------------------------------|--------------------------------|
E|--------------------------------|--------------------------------|
                                                                     
E|--------------------------------|--------------------------------|
B|4-------4-----------------------|--------------------------------|
G|----------------1---------------|--------------------------------|
D|--------------------------------|--------------------------------|
A|--------------------------------|--------------------------------|
E|--------------------------------|--------------------------------|
                                                                    
E|--------------------------------|--------------------------------|
B|----------------0-------2-------|0-------------------------------|
G|----1---3-----------------------|--------3-----------------------|
D|4-------------------------------|----------------4-------4-------|
A|--------------------------------|--------------------------------|
E|--------------------------------|--------------------------------|
                                                                    
E|--------------------------------|--------------------------------|
B|--------------------------------|--------------------------------|
G|1-------------------------------|--------------------------------|
D|--------------------------------|--------------------------------|
A|--------------------------------|--------------------------------|
E|--------------------------------|--------------------------------|
                                                                    
E|--------------------------------|--------------------------------|
B|----------------0-------2-------|4-------5-------4-------2-------|
G|1-------3-----------------------|--------------------------------|
D|--------------------------------|--------------------------------|
A|--------------------------------|--------------------------------|
E|--------------------------------|--------------------------------|
                                                                     
E|--------------------------------|--------------------------------|
B|4-------4-----------------------|--------------------------------|
G|----------------1---------------|--------------------------------|
D|--------------------------------|--------------------------------|
A|--------------------------------|--------------------------------|
E|--------------------------------|--------------------------------|
                                                                    
E|--------------------------------|--------------------------------|
B|----------------0-------2-------|0-------------------------------|
G|----1---3-----------------------|--------3-----------------------|
D|4-------------------------------|----------------4-------4-------|
A|--------------------------------|--------------------------------|
E|--------------------------------|--------------------------------|
                                                                     
E|--------------------------------|--------------------------------|
B|--------------------------------|--------------------------------|
G|1-------------------------------|--------------------------------|
D|--------------------------------|--------------------------------|
A|--------------------------------|--------------------------------|
E|--------------------------------|--------------------------------|
 
[Outro]                                                            
E|21--------------19--18----------|18--1918191816--16--------------|
B|--------------------------21----|--------------19----19----------|
G|--------------------------------|--------------------------------|
D|--------------------------------|--------------------------------|
A|--------------------------------|--------------------------------|
E|--------------------------------|--------------------------------|
                                                                    
E|----------------16----------16--|--------16----------------------|
B|--------------------------------|--------------------16----------|
G|--------------------------------|--------------------------------|
D|--------------------------------|--------------------------------|
A|--------------------------------|--------------------------------|
E|--------------------------------|--------------------------------|
                                                                    
E|21--------------19------18------|14--16--14--------------16------|
B|----------------------------21--|--------------------------------|
G|--------------------------------|--------------------------------|
D|--------------------------------|--------------------------------|
A|--------------------------------|--------------------------------|
E|--------------------------------|--------------------------------|
                                                                     
E|--------------------------------|--------------------------------|
B|--------------------------------|--------------------------------|
G|--------------------------------|--------------------------------|
D|--------------------------------|--------------------------------|
A|--------------------------------|--------------------------------|
E|--------------------------------|--------------------------------|
                                                                   
E|--------------------------------|--------------------------------|
B|0-0-0-0-0-0-0-0-0-0-0-0-0-0-0-0-|2-2-2-2-4-4-4-4-5-5-5-5-4-4-4-4-|
G|--------------------------------|--------------------------------|
D|--------------------------------|--------------------------------|
A|--------------------------------|--------------------------------|
E|--------------------------------|--------------------------------|
                                                                    
E|--------------------------------|--------------------------------|
B|2-2-2-2-0-0-0-0-0-------0---0-0-|0-0-0-0-0---0-------------------|
G|--------------------------------|------------------------1-------|
D|--------------------------------|--------------------------------|
A|--------------------------------|--------------------------------|
E|--------------------------------|--------------------------------|
                                                                    
E|--------------------------------|--------4-4-4-4-7-7-7-7-4-------|
B|----------------2-2-2-2-4-4-4-4-|7-7-7-7-------------------------|
G|1-1-1-1-4-4-4-4-----------------|--------------------------------|
D|--------------------------------|--------------------------------|
A|--------------------------------|--------------------------------|
E|--------------------------------|--------------------------------|
                                                                    
E|--------------------------------|--------------------------------|
B|--------------------------------|--------------------------------|
G|--------------------------------|--------------------------------|
D|--------------------------------|--------------------------------|
A|--------------------------------|--------------------------------|
E|--------------------------------|--------------------------------|
                                                                     
E|--------------------------------|--------4-4-4-4-7-7-7-7-4-------|
B|----------------2-2-2-2-4-4-4-4-|7-7-7-7-------------------------|
G|1-1-1-1-4-4-4-4-----------------|--------------------------------|
D|--------------------------------|--------------------------------|
A|--------------------------------|--------------------------------|
E|--------------------------------|--------------------------------|
                                                                     
E|--------------------------------|--------------------------------|
B|--------------------------------|--------------------------------|
G|--------------------------------|--------------------------------|
D|--------------------------------|--------------------------------|
A|--------------------------------|--------------------------------|
E|--------------------------------|--------------------------------|
                                                                    
E|--------------------------------|--------4-4-4-4-7-7-7-7-4-------|
B|----------------2-2-2-2-4-4-4-4-|7-7-7-7-------------------------|
G|1-1-1-1-4-4-4-4-----------------|--------------------------------|
D|--------------------------------|--------------------------------|
A|--------------------------------|--------------------------------|
E|--------------------------------|--------------------------------|
                                                                    
E|--------------------------------|--------------------------------|
B|--------------------------------|--------------------------------|
G|--------------------------------|--------------------------------|
D|--------------------------------|--------------------------------|
A|--------------------------------|--------------------------------|
E|--------------------------------|--------------------------------|
                                                                    
E|--------------------------------|--------4-4-4-4-7-7-7-7-4-------|
B|----------------2-2-2-2-4-4-4-4-|7-7-7-7-------------------------|
G|1-1-1-1-4-4-4-4-----------------|--------------------------------|
D|--------------------------------|--------------------------------|
A|--------------------------------|--------------------------------|
E|--------------------------------|--------------------------------|

            
            
Suggest correction
Creating personal tab
Creating personal tab
You can edit any tab online and save it as your Personal.

You can edit, replace or remove any tab part or add personal notes – all changes will be seen only by you.

Personal tabs can be accessed anytime from any device, even offline.
Learn more »
Give kudos to tab author, rate the tab!
1 2 3 4 5
comments
print report bad tab
guest
You may want to rate the tab now too:
select rating
Wanna post a correction for this tab? Suggest correction