Oops, an error
Loading. Please wait.

Pac-Man Fever bass

1,159 views 3 this week
no commentswrite comment
1 2 3 4 5
3 more votes to show rating
add to favorites
×
Save as Personal and add changes to this tab that will be seen only by you. Learn more ›
×
You can save this tab as Personal to edit and correct it or add notes. All changes will be seen only by you. Learn more »
launch autoscroll
font size
0
reset
guitar tuner
edit
Autoscroll
slow
fast
+/-
esc
set tempo
stop
Author
Difficulty
-------------------------------------------------------------------------------
			 Pac-Man Fever - Buckner & Garcia
-------------------------------------------------------------------------------

Tabbed By :  kamakazi20012
e-mail: kamakazi20012@live.com

Tuning:  EADG

Comments:  Here is a tab for an 80's one-hit wonder that time seems to have
forgotten.  Probably for good reason but has a fun bass line to play and only three 
to the whole song.

INTRO (Pac-Man sounds)

DRUM INTRO & BREAK AFTER FIRST CHORUS
  1 2 3 4  1 2 3 4  1 2 3 4  1 2 3 4
G|--------|--------|--------|--------|
D|--------|--------|--------|--------|
A|--------|--------|--------|-------3|
E|--------|--------|--------|--------|

ALL VERSES AND GUITAR SOLO
  1 2 3 4  1 2 3 4  1 2 3 4  1 2 3 4  1 2 3 4  1 2 3 4  1 2 3 4  1 2 3 4
G|--------|--------|--------|--------|--------|--------|--------|--------|
D|--------|--------|--------|--------|--------|--------|--------|-------3|
A|-31-0--3|-31-0--3|-31-0--3|-31-0--3|-31-0--3|-31-0--3|-31-0--3|-31-0---|
E|------3-|------3-|------3-|------3-|------3-|------3-|------3-|------3-|

  1 2 3 4  1 2 3 4  1 2 3 4  1 2 3 4  1 2 3 4  1 2 3 4  1 2 3 4  1 2 3 4
G|--------|--------|--------|--------|--------|--------|--------|--------|
D|-31-0--3|-31-0--3|-31-0--3|-31-0---|--------|--------|--------|--------|
A|------3-|------3-|------3-|------33|-31-0--3|-31-0--3|-31-0--3|-31-0---|
E|--------|--------|--------|--------|------3-|------3-|------3-|------3-|

CHORUS

  1 2 3 4  1 2 3 4  1 2 3 4  1 2 3 4  1 2 3 4  1 2 3 4  1 2 3 4  1 2 3 4
G|--------|--------|--------|--------|--------|--------|--------|--------|
D|--------|--------|--------|11111111|--------|--------|--------|--------|
A|33333333|11111111|--------|--------|33333333|11111111|--------|--------|
E|--------|--------|33333333|--------|--------|--------|33333333|33333333|

  1 2 3 4  1 2 3 4  1 2 3 4  1 2 3 4  1 2 3 4
G|--------|--------|--------|--------|--------|
D|--------|--------|--------|11111111|--------|
A|33333333|11111111|--------|--------|3-------|
E|--------|--------|33333333|--------|--------|
(REPEAT FROM DRUM INTRO)

BRIDGE

  1 2 3 4  1 2 3 4  1 2 3 4  1 2 3 4
G|--------|--------|--------|--------|
D|------13|------13|----1133|----135-|
A|--1133--|--1133--|--33----|--33---3|
E|11------|11------|33------|33------|

Repeat VERSE for GUITAR SOLO and final VERSE and repeat CHORUS until song fades out.

| /  slide up
| \  slide down
| h  hammer-on
| p  pull-off
| ~  vibrato
| +  harmonic
| x  Mute note
===============================================================================

            
            
Suggest correction
Creating personal tab
Creating personal tab
You can edit any tab online and save it as your Personal.

You can edit, replace or remove any tab part or add personal notes – all changes will be seen only by you.

Personal tabs can be accessed anytime from any device, even offline.
Learn more »
Give kudos to tab author, rate the tab!
1 2 3 4 5
comments
print report bad tab
guest
You may want to rate the tab now too:
select rating
Wanna post a correction for this tab? Suggest correction