Oops, an error
Loading. Please wait.

Damn Right Ive Got The Blues bass

version 1
version 1

Whole song

10,760 views 9 this week
2 commentsread comments
1 2 3 4 5
x 7
add to favorites
×
Save as Personal and add changes to this tab that will be seen only by you. Learn more ›
×
You can save this tab as Personal to edit and correct it or add notes. All changes will be seen only by you. Learn more »
launch autoscroll
font size
0
reset
guitar tuner
edit
Autoscroll
slow
fast
+/-
esc
set tempo
stop
Tabbed by Dragon

Standard Tuning

This works well as a rhythm guitar/keyboard part too

Verse/solo
G-------------5----------------------------5---------------]
D--7------5-----7------5--------7------5-----7------5------]
A-----5-7---7------5-7---7---------5-7---7------5-7---7----]
E--------------------------8-5--------------------------8--]
(No break just keep playing)
G-----------------10-------------------------------------5-------------]
D-12--------10-------12------------10---------7------5-----7-----5-----]
A-----10-12----12------------10-12----12---------5-7---7-----5-7---7---]
E-----------------------------------------13-------------------------8-]
(No break just keep playing)
G---------------12----------------10------------5----------------]
D-14------12-------12-------10--------7-----5-----7------5-------]
A---12-14----14-------10-12----12-------5-7---7------5-7---7-----]
E------------------------------------------------------------8-5-]

Outro
G-------------5----------------------------5---------------]
D--7------5-----7------5--------7------5-----7------5------] Repeat and fade
A-----5-7---7------5-7---7---------5-7---7------5-7---7----]
E--------------------------8-5--------------------------8--]

            
            
Suggest correction
Creating personal tab
Creating personal tab
You can edit any tab online and save it as your Personal.

You can edit, replace or remove any tab part or add personal notes – all changes will be seen only by you.

Personal tabs can be accessed anytime from any device, even offline.
Learn more »
comments
print report bad tab
2 comments total.
0 reply
BoonMcNougat 97 Nov 10, 2009 10:27 PM

Your strings are upside down, making this harder than it should be to play along to.

0 reply
BoonMcNougat 97 Nov 10, 2009 10:29 PM

Argh, sorry, I was looking at a tab before this one which had the strings upside down, and I meant to comment on that. Sorry!

guest
You may want to rate the tab now too:
select rating
Wanna post a correction for this tab? Suggest correction