Oops, an error
Loading. Please wait.

Heartbeat chords

version 3
version 3

Whole song

  • This version is by far, the most accurate.
  • My tab includes more accurate lyrics, more accurat... Show more

Interactive

394 views 1 this week
no commentswrite comment
1 2 3 4 5
3 more votes to show rating
add to favorites
×
Save as Personal and add changes to this tab that will be seen only by you. Learn more ›
×
You can save this tab as Personal to edit and correct it or add notes. All changes will be seen only by you. Learn more »
launch autoscroll
font size
0
reset
transpose
0
reset
display chords
guitar tuner
backing track
0:00
0:00
edit
Autoscroll
slow
fast
+/-
esc
set tempo
stop
Author
Difficulty
About this tab version
My tab includes more accurate lyrics, more accurate chords, and more accurate chord positions above lyrics than the other versions. It also includes the explicit solo. Was this info helpful? Yes No
Strumming
There is no strumming pattern for this song yet. and get +5 IQ
[Intro]

    A   A    A   D      A      E   E     E    A      E     A   A    A   D      A      E   E     E    A     E
e|--9---9----9---10-----9------7---7-----7----9------7-----9---9----9---10-----9------7---7-----7----9-----7-|
B|-----------------------------------------------------------------------------------------------------------|
G|-----------------------------------------------------------------------------------------------------------|
D|--11--11---11--12-----11-----9---9-----9----11-----9-----11--11---11--12-----11-----9---9-----9----11----9-|
A|-----------------------------------------------------------------------------------------------------------|
E|-----------------------------------------------------------------------------------------------------------|


[Verse 1]

A                     D            E           A   D   A   E   A   E  ...x2
Heartbeat, why do you miss when my baby kisses me?
A                     D                E               A   D   A   E   A   E   A   D   A   D   A
Heartbeat, why does a love's kiss stay in my memory?


[Pre-chorus 1]

E            D                    A            D   A   E
Piddily pat, I know that new love thrills me,
  D                   A         E
I know that true love will be

Chorus

A                     D            E           A   D   A   E   A   E  ...x2
Heartbeat, why do you miss when my baby kisses me?


[Solo]

           A     A                    A    E    A     D            D           D      A       A   E    E
e|--4/5----5---- 5\4/5----------------5----7----9-----10------\9---10-----\9---10-----9-------9---7----7---|
B|---------------------------------------------------------------------------------------------------------|
G|---------------------------------------------------------------------------------------------------------|
D|--6/7----7-----7\6/7----------------7----9----11----12------\11--12-----\11--12-----11------11--9----9---|
A|---------------------------------------------------------------------------------------------------------|
E|---------------------------------------------------------------------------------------------------------|

    A   A    A   D      A      E   E     E    A      E     A   A    A   D      A      E   E     E    A     E
e|--9---9----9---10-----9------7---7-----7----9------7-----9---9----9---10-----9------7---7-----7----9-----7-|
B|-----------------------------------------------------------------------------------------------------------|
G|-----------------------------------------------------------------------------------------------------------|
D|--11--11---11--12-----11-----9---9-----9----11-----9-----11--11---11--12-----11-----9---9-----9----11----9-|
A|-----------------------------------------------------------------------------------------------------------|
E|-----------------------------------------------------------------------------------------------------------|


[Verse 2]

A                     D            E                A   D   A   E   A   E  ...x2
Heartbeat, why do you skip when my baby's lips meet mine?
A                     D              E              A   D   A   E   A   E   A   D   A   D   A
Heartbeat, why do you flip then give me a skip beat sign?


[Pre-chorus 2]

E                D                 A       D   A   E
Piddily pat, and sing to me love's story
    D                  A       E
And bring to me love's glory


[Chorus]

A                     D            E           A   D   A   E   A   E  ...x3   A
Heartbeat, why do you miss when my baby kisses me?

            
            
Suggest correction
Creating personal tab
Creating personal tab
You can edit any tab online and save it as your Personal.

You can edit, replace or remove any tab part or add personal notes – all changes will be seen only by you.

Personal tabs can be accessed anytime from any device, even offline.
Learn more »
Give kudos to tab author, rate the tab!
1 2 3 4 5
comments
print report bad tab
guest
You may want to rate the tab now too:
select rating
Wanna post a correction for this tab? Suggest correction