Oops, an error
Loading. Please wait.

True Love Ways bass

version 1
version 1

Whole song

Interactive

2,091 views 1 this week
1 commentread comment
1 2 3 4 5
1 last vote to show rating
add to favorites
×
Save as Personal and add changes to this tab that will be seen only by you. Learn more ›
×
You can save this tab as Personal to edit and correct it or add notes. All changes will be seen only by you. Learn more »
launch autoscroll
font size
0
reset
guitar tuner
edit
Autoscroll
slow
fast
+/-
esc
set tempo
stop
True Love Ways - Buddy holly (Bass Tab)

P.S. this is the exact tab so don't say there is a part that is wrong.  Because it is 
from the song the tab gives you the chance to add in whatever extra and make it your own, 
have fun!
Verse 1
|----------------------------------------------------------------|
|-------0--1--3-----0--1--3-----5--5-----------3--3--------------|
|----0-----------0-----------0--------2--2--2--------------------|
|----------------------------------------------------------------|

Verse 2
|------------------------------------------------------------|
|-------0--1--3-----0--1--3-----5-----3-----1----------------|
|----0-----------0-----------0-----2-----0-----0-------------|
|------------------------------------------------------------|

Bridge

|--------------------------------------------------------------|
|----4--4--4--6--3--3--------3--3--------3-----3---------------|
|----------------------0--0--------2--2-----2------------------|
|--------------------------------------------------------------|

Verse 2
|-------------------------------------------------------------|
|-------0--1--3-----0--1--3-----5-----3-----1-----------------|
|----0-----------0-----------0-----2-----0-----0--------------|
|-------------------------------------------------------------|

Verse 2/Instrumental
|-------------------------------------------------------------|
|-------0--1--3-----0--1--3-----5-----3-----1-----------------|
|----0-----------0-----------0-----2-----0-----0--------------|
|-------------------------------------------------------------|

Bridge
|-------------------------------------------------------------|
|----4--4--4--6--3--3--------3--3--------3-----3--------------|
|----------------------0--0--------2--2-----2-----------------|
|-------------------------------------------------------------|

Verse 2/Outro
|------------------------------------------------------------------------|
|-------0--1--3-----0--1--3-----5-------3-----0--1--3-----3--------------|
|----0-----------0-----------0-----2--2----0-----------0-----0-----------|
|------------------------------------------------------------------------|

Tabbed by Vance Wattron

            
            
Suggest correction
Creating personal tab
Creating personal tab
You can edit any tab online and save it as your Personal.

You can edit, replace or remove any tab part or add personal notes – all changes will be seen only by you.

Personal tabs can be accessed anytime from any device, even offline.
Learn more »
Give kudos to tab author, rate the tab!
1 2 3 4 5
comments
print report bad tab
1 comment total.
0 reply
hmn7553 10 Jan 28, 2013 06:20 PM

why are both versions posted of this song are different and say identically that they are correct. I think this version sounds more fitting to the original song.

guest
Wanna post a correction for this tab? Suggest correction