Oops, an error
Loading. Please wait.

Another Day tab

554 views 1 this week
2 commentsread comments
1 2 3 4 5
x 3
add to favorites
×
Save as Personal and add changes to this tab that will be seen only by you. Learn more ›
×
You can save this tab as Personal to edit and correct it or add notes. All changes will be seen only by you. Learn more »
launch autoscroll
font size
0
reset
how to read this tab
guitar tuner
edit
Autoscroll
slow
fast
+/-
esc
set tempo
stop
Author
----------------------------------------------------------
Built to Spill - Another Day
Tabbed by Miamasa
Solos may not be entirely accurate but they get the jist of the song.
Enjoy!

Updated solo
----------------------------------------------------------

A E D

      A         E         D
E|----------------------------------------------------|
B|----------------------------------------------------|
G|----------------------------------------------------|
D|----------------------------------------------------|
A|----------------------------------------------------|
E|--2/5-----7\5-4-----5\4-2-------/10-----------------|


A   E            D  
I can't explain anything to anyone
A                   E             D
Don't believe that nothing isn't true
E         A                D                    
And you know you're not the one who gets to decide
E                         A         D
What is right and what is right for you


A      E        D
And I wake up everyday just the same
A          E                D
Somewhere between stars and sand
E           A          D
And I was made from material that could never last
E        A                              D
An obsolescence that no one would have planned


A       E            D
And I know there's something deep inside
A                E                D
No one's gotta see it to make it real
E       A            D
And I don't expect anyone to read my mind
E             A        D
But when you don't I'm disappointed every time
E       A             D
And if somehow you make it through you're gonna find
E                   A          D
I just want you to know how I feel




Solo Part 1:
Saw a video of it being played live. Doug plays the riffs down in the first few frets. The original
tab is down in the comments if you prefer that.

    C             Ab             Eb 
E|--------------------------------------------------------------------|
B|--------------------------------------------------------------------|
G|------0--1--0--------0-1-0--------0-1-0-1-0------0---0---0----------|
D|----------------1--------------1---------------1---1---1---1--------|
A|--3-----------------------------------------------------------------|
E|--------------------------------------------------------------------|

    C             Ab             Eb 
E|-------------------------------------------------------------|
B|-------------------------------------------------------------|
G|------0--1--0--------0-1-0----------3-1-0-0---1-0------------|
D|----------------1--------------1------------------1----------|
A|--3----------------------------------------------------------|
E|-------------------------------------------------------------|
 
    C             Ab             Eb           Bb
E|-------------------------------------------------------------|
B|-------------------------------------------------------------| 
G|------0--1--0--------0-1-0----------0-1-0---0-1-3-1-0--------|
D|----------------1--------------1-----------------------------|
A|--3----------------------------------------------------------|
E|-------------------------------------------------------------|

    C             Ab             Eb         Bb
E|-------------------------------------------------------------|
B|-------------------------------------------------------------| 
G|------0--1--0--------1---0----------1-0-3-1-0----------------|
D|----------------1--------------1--------------3---1----------|
A|--3----------------------------------------------------------|
E|-------------------------------------------------------------|



Solo Part 2:

Listen for the rhythm. It's sort of hard.. here are just the chords.
E chord is a quick transition

    A   (E) F          G          D         C   B
E|--5----7--8----------10---------------------------------------|
B|--5----9--10---------12---------------------------------------|
G|--6----9--10---------12---------7--7--7---5---4---------------|     x4
D|--7----9--10---------12---------------------------------------|
A|--7----7--8----------10---------5--5--5---3---2---------------|
E|--5-----------------------------------------------------------|

    E       F          G          D         C   B
E|--7-------8----------10---------------------------------------|
B|--9-------10---------12---------------------------------------|
G|--9-------10---------12---------7--7--7---5---4---------------|     x2
D|--9-------10---------12---------------------------------------|
A|--7-------8----------10---------5--5--5---3---2---------------|
E|--------------------------------------------------------------|

    A   (E) F          G          D         C   B
E|--5----7--8----------10---------------------------------------|
B|--5----9--10---------12---------------------------------------|
G|--6----9--10---------12---------7--7--7---5---4---------------|
D|--7----9--10---------12---------------------------------------|
A|--7----7--8----------10---------5--5--5---3---2---------------|
E|--5-----------------------------------------------------------|

    A   (E) F          G       
E|--5----7--8----------10---------|
B|--5----9--10---------12---------|
G|--6----9--10---------12---------|
D|--7----9--10---------12---------|
A|--7----7--8----------10---------|
E|--5-----------------------------|


Solo Part 3 (slide):

A E D x2

    E                  A                D     (Ending varies)           
E|----------------------------------------------------|
B|-----------9---------------14------14\------7---7---|
G|--7--/--9-----9--9--/--14------14--14\--7-7---7-----|    x4
D|--7--/--9-----9--9--/--14------14--14\--7-7---7-----|
A|----------------------------------------------------|
E|----------------------------------------------------|



A        E         D
And our choices fade into the emptiness
A            E                    D
Right before we start to fade ourselves
E                A             D
And now it seems like the only thing on my mind
E            A               D
Is getting all these things off my chest before I die
E           A                 D
And going back to where the earth is soft to try to find
E                  A            D 
Somewhere we can bury all our mistakes

F#m

            
            
Suggest correction
Creating personal tab
Creating personal tab
You can edit any tab online and save it as your Personal.

You can edit, replace or remove any tab part or add personal notes – all changes will be seen only by you.

Personal tabs can be accessed anytime from any device, even offline.
Learn more »
Give kudos to tab author, rate the tab!
1 2 3 4 5
comments
print report bad tab
2 comments total.
0 reply
tasmainia300 10 Aug 29, 2015 11:07 AM

Thanks! This is spot on!

0 reply
Miamasa 227 Mar 18, 2016 02:53 PM

In case it's prefered, original solo tab:

C             Ab             Eb 
E|--------------------------------------------------------------------|
B|--------------------------------------------------------------------|
G|--------------------------------------------------------------------|
D|--------------------------------------------------------------------|
A|------10-11-10-------10-11-10-------10-11-10---10-11-10-11-10-11..--|
E|--8-------------11-------------11-----------------------------------|

C Ab Eb
E|-------------------------------------------------------------|
B|-------------------------------------------------------------|
G|-------------------------------------------------------------|
D|------------------------------------8------------------------|
A|------10-11-10-------10-11-10---------11-10-10---11-10-------|
E|--8-------------11-------------11----------------------11----|

C Ab Eb Bb
E|-------------------------------------------------------------------|
B|-------------------------------------------------------------------|
G|-------------------------------------------------------------------|
D|-----------------------------------------------------8-------------|
A|------10-11-10-------10-11-10-------10-11-10---10-11---11-10-11..--|
E|--8-------------11-------------11----------------------------------|

C Ab Eb Bb
E|---------------------------------------------------------|
B|---------------------------------------------------------|
G|---------------------------------------------------------|
D|-----------------------------------------8---------------|
A|------10-11-10-------11---10-------11-10---11-10--8------|
E|--8-------------11------------11---------------------11--|

guest
You may want to rate the tab now too:
select rating
Wanna post a correction for this tab? Suggest correction